Skillet - Will You Be There Chords & Tabs

 

Will You Be There Chords & Tabs

Skillet Chords & Tabs

Version: 1 Type: Bass Tab 0 ratings
1 star 2 stars 3 stars 4 stars 5 stars
comments

Will You Be There Bass Tab

Will You Be There
Artist: Skillet
Album: Alien Youth
Tabbed by Kyle Sanders (sanctifiedfreak@hotmail.com)

Verse
G--------------------------------
D--------------------------------
A--4-4-4---2--2---1-1-1---1--1---
E--------------------------------

G--------------------------------
D--------------------------------
A----------4--4------------------
E--2-2-2----------4-4-4---4--4---
[ Tab from: http://www.guitartabs.cc/tabs/s/skillet/will_you_be_there_btab.html ]
Chorus
G------------------------------------------------------
D------------------------------------------------------
A------------------------------------------------------
E--2-2-2--2-4-4-4--4/6\2-2-2--2-6-6-6--4-4-4--6\2-2-2--

Bridge
G-----------------------------------------------------------
D-----------------------------------------------------------
A------------------3-3-3-3-4-4-4-4-----------------4-4-4-4--
E--2-2-2-2-2-2-2-2-----------------2-2-2-2-2-2-2-2----------

G----------------------------------|------
D----------------------------------|------
A--4-4-4-3-1-1-1-1-----------------|-6----
E------------------4-4-4-4-2-2-2-2-|------
                                    end of bridge
Comments