Skillet - Vapor Chords & Tabs

 

Vapor Chords & Tabs

Skillet Chords & Tabs

Version: 1 Type: Bass Tab 0 ratings
1 star 2 stars 3 stars 4 stars 5 stars
comments

Vapor Bass Tab

Vapor
Artist: Skillet
Album: Alien Youth
Tabbed by Kyle Sanders (sanctifiedfreak@hotmail.com)

Intro/Interlude
G------------------
D------------------
A------------------
E--0-0-00--1-1-10--

no bass on first verse

Chorus
G-------------------------------------
D-------------------------------------
A--0-0-00--03-3-33--32-2-22--21-1-11--
E-------------------------------------

G-----------------------------------------
D-----------------------------------------
A--10-0-00--03-3-33--32-2-22--2/7-7-7-7\--
E-----------------------------------------
[ Tab from: http://www.guitartabs.cc/tabs/s/skillet/vapor_btab.html ]
Verse
G-------------------------|-------------------------
D-------------------------|-------------------------
A--0-0--3-3--0-0----------|-0-0--3-3--0-0-----------
E-----------------2-2-1-1-|----------------3-3-3-3--

Bridge
G--------------------------------------------
D--------------------------------------------
A--2222-2222-3333-7777--2222-2222-3333-------
E--------------------------------------3333--

G--------------------------------------------------------
D--------------------------------------------------------
A--2222-2222-3333-7777--3333-3333-7777-(10)(10)(10)(10)--
E--------------------------------------------------------
Comments