Skillet - Savior Chords & Tabs

 

Savior Chords & Tabs

Skillet Chords & Tabs

Version: 5 Type: Tab

Savior Tab

This tab is not exactly how Ben plays it but it is better than all the other tabs.  I
know how to play the solo but I have the rest of the song.  This is my first tab, so if I
up please rate or e-mail me at Ijustwannabeadancer@hotmail.com.

Acoustic (Intro)

e------------------------------|
B------------------------------|
G-------------------2--3333322-|
D--0---2-h-3-p-2--0--0-3333322-|
A--0-0----------3------1111100-|
D--0---------------------------|

e-------------------------------|
B-------------------------------|
G------------------2------------|
D--0--2-h-3-p-2--0--0-3333/5555-|
A--0-0---------3------3333/5555-|
D--0------------------3333/5555-|

e-----------------------------|
B-----------------------------|
G------------------2--3333322-|
D--0---2-h-3-p-2-0--0-3333322-|
A--0-0----------3-----1111100-|
D--0--------------------------|

e-------------------------|
B-------------------------|
G-----------------2-------|
D--0--2-h-3-p-2-0---3---3-|
A--0-0---------3----3---3-|
D--0----------------3---3-|

Electric (Bridge)
e-----------------------------|
B-----------------------------|
G-----------------------------|
D--000-x-00-x-0-x-0-x-0-x-333-|    4x
A--000-x-00-x-0-x-0-x-0-x-333-|
D--000-x-00-x-0-x-0-x-0-x-111-|

e-----------------------------|
B-----------------------------|
G-----------------------------|
D--000x000x000----------------|
A--000x000x000----------------|
D--000x000x000----------------|

Acoustic (Verse)

e------------------------------|
B------------------------------|
G-------------------2--3333322-|
D--0---2-h-3-p-2--0--0-3333322-|
A--0-0----------3------1111100-|
D--0---------------------------|

e-------------------------------|
B-------------------------------|
G------------------2------------|      3X
D--0--2-h-3-p-2--0--0-3333/5555-|
A--0-0---------3------3333/5555-|
D--0------------------3333/5555-|

e-----------------------------|
B-----------------------------|
G------------------2--3333322-|
D--0---2-h-3-p-2-0--0-3333322-|
A--0-0----------3-----1111100-|
D--0--------------------------|

e-------------------------|
B-------------------------|
G-----------------2-------|
D--0--2-h-3-p-2-0---3---3-|
A--0-0---------3----3---3-|
D--0----------------3---3-|

Electric (Bridge)

e------------------------|
B------------------------|
G------------------------|
D--000x00x000x00---------|
A--000x00x000x00---------|
D--000x00x000x00---------|

Electric (Chorus)

e--------------------|
B--------------------|
G--------------------|
D--000x000x000x55533-|
A--000x000x000x55533-|
D--000x000x000x33311-|

e-----------------------|
B-----------------------|
G-----------------------|
D--000x000x000x333-555--|  2x
A--000x000x000x333-555--|
D--000x000x000x333-555--|

e--------------------|
B--------------------|
G--------------------|
D--000x000x000x55533-|
A--000x000x000x55533-|
D--000x000x000x33311-|

e--------------------|
B--------------------|
G--------------------|
D--000x000x000x333220
A--000x000x000x333220
D--000x000x000x333220

Electric (Bridge)
e-----------------------------|
B-----------------------------|
G-----------------------------|
D--000-x-00-x-0-x-0-x-0-x-333-|    4x
A--000-x-00-x-0-x-0-x-0-x-333-|
D--000-x-00-x-0-x-0-x-0-x-111-|

Acoustic (Verse)

e------------------------------|
B------------------------------|
G-------------------2--3333322-|
D--0---2-h-3-p-2--0--0-3333322-|
A--0-0----------3------1111100-|
D--0---------------------------|

e-------------------------------|
B-------------------------------|
G------------------2------------|
D--0--2-h-3-p-2--0--0-3333/5555-|   3x
A--0-0---------3------3333/5555-|
D--0------------------3333/5555-|

e-----------------------------|
B-----------------------------|
G------------------2--3333322-|
D--0---2-h-3-p-2-0--0-3333322-|
A--0-0----------3-----1111100-|
D--0--------------------------|

e-------------------------|
B-------------------------|
G-----------------2-------|
D--0--2-h-3-p-2-0---3---3-|
A--0-0---------3----3---3-|
D--0----------------3---3-|

Electric (Bridge)
[ Tab from: http://www.guitartabs.cc/tabs/s/skillet/savior_tab_ver_5.html ]
e--------------------------|
B--------------------------|
G--------------------------|
D--0000x00x0000x00---------|
A--0000x00x0000x00---------|
D--0000x00x0000x00---------|

Electric (Chorus)

e--------------------|
B--------------------|
G--------------------|
D--000x000x000x55533-|
A--000x000x000x55533-|
D--000x000x000x33311-|

e-----------------------|
B-----------------------|
G-----------------------|
D--000x000x000x333-555--|  2x
A--000x000x000x333-555--|
D--000x000x000x333-555--|

e--------------------|
B--------------------|
G--------------------|
D--000x000x000x55533-|
A--000x000x000x55533-|
D--000x000x000x33311-|

e--------------------|
B--------------------|
G--------------------|
D--000x000x000x333220
A--000x000x000x333220
D--000x000x000x333220

e--------------------|
B--------------------|
G--------------------|
D--000x000x000x55533-|
A--000x000x000x55533-|
D--000x000x000x33311-|

e-----------------------|
B-----------------------|
G-----------------------|
D--000x000x000x333-555--|  2x
A--000x000x000x333-555--|
D--000x000x000x333-555--|

e--------------------|
B--------------------|
G--------------------|
D--000x000x000x55533-|
A--000x000x000x55533-|
D--000x000x000x33311-|

e--------------------|
B--------------------|
G--------------------|
D--000x000x000x333220
A--000x000x000x333220
D--000x000x000x333220

Solo Section (Background)

e-----------------------------|
B-----------------------------|
G-----------------------------|
D--000-x-00-x-0-x-0-x-0-x-333-|    4x
A--000-x-00-x-0-x-0-x-0-x-333-|
D--000-x-00-x-0-x-0-x-0-x-111-|

e------------------|
B------------------|
G--555/33--555/33--|   3x
D--555/33--555/11--|
A--333/11--555/11--|
D------------------|

Acoustic (Verse)

e------------------------------|
B------------------------------|
G-------------------2--3333322-|
D--0---2-h-3-p-2--0--0-3333322-|
A--0-0----------3------1111100-|
D--0---------------------------|

e-------------------------------|
B-------------------------------|
G------------------2------------|
D--0--2-h-3-p-2--0--0-3333/5555-|
A--0-0---------3------3333/5555-|
D--0------------------3333/5555-|

e-----------------------------|
B-----------------------------|
G------------------2--3333322-|
D--0---2-h-3-p-2-0--0-3333322-|
A--0-0----------3-----1111100-|
D--0--------------------------|

e-------------------------|
B-------------------------|
G-----------------2-------|
D--0--2-h-3-p-2-0---3---3-|
A--0-0---------3----3---3-|
D--0----------------3---3-|

Electric (Chorus)

e--------------------|
B--------------------|
G--------------------|
D--000x000x000x55533-|
A--000x000x000x55533-|
D--000x000x000x33311-|

e-----------------------|
B-----------------------|
G-----------------------|
D--000x000x000x333-555--|  2x
A--000x000x000x333-555--|
D--000x000x000x333-555--|

e--------------------|
B--------------------|
G--------------------|
D--000x000x000x55533-|
A--000x000x000x55533-|
D--000x000x000x33311-|

e--------------------|
B--------------------|
G--------------------|
D--000x000x000x333220
A--000x000x000x333220
D--000x000x000x333220

e--------------------|
B--------------------|
G--------------------|
D--000x000x000x55533-|
A--000x000x000x55533-|
D--000x000x000x33311-|

e-----------------------|
B-----------------------|
G-----------------------|
D--000x000x000x333-555--|  2x
A--000x000x000x333-555--|
D--000x000x000x333-555--|

e--------------------|
B--------------------|
G--------------------|
D--000x000x000x55533-|
A--000x000x000x55533-|
D--000x000x000x33311-|

e--------------------|
B--------------------|
G--------------------|
D--000x000x000x333220
A--000x000x000x333220
D--000x000x000x333220

Ending

e-----------------------------|
B-----------------------------|
G-----------------------------|
D--000-x-00-x-0-x-0-x-0-x-333-|    4x
A--000-x-00-x-0-x-0-x-0-x-333-|
D--000-x-00-x-0-x-0-x-0-x-111-|

e-----------------------------|
B-----------------------------|
G-----------------------------|
D--000x000x000----------------|
A--000x000x000----------------|
D--000x000x000----------------|