Skillet - Savior Chords & Tabs

 

Savior Chords & Tabs

Skillet Chords & Tabs

Version: 4 Type: Tab 0 ratings
1 star 2 stars 3 stars 4 stars 5 stars
comments

Savior Tab

   
ok well the other tabs for this song kinda confused me... so i figured i make a tab that
made a little more since...

Drop-D


Intro:
e|------------------------------------------------------------------------|
B|------------------3-----------------------------------3-----------------|
G|------------------0--3-3-3-3-33--2--------------------0-----------------|
D|--------2h3p2-----2--3-3-3-3-33--2----------2h3p2-----2--3-3-3-5-5-7-7--|
A|-----0---------3--3--1-1-1-1-11--0-------0---------3--3--3-3-3-5-5-7-7--|
D|--0-----------------------------------0------------------3-3-3-5-5-7-7--|

e|-------------------------------------------------------------|
B|------------------3-----------------------------------3------|
G|------------------0--3-3-3-3-33--2--------------------0------|
D|--------2h3p2-----2--3-3-3-3-33--2----------2h3p2-----2--3~--|
A|-----0---------3--3--1-1-1-1-11--0-------0---------3--3--3~--|
D|--0-----------------------------------0------------------3~--|

Prechorus:
|--------------------------| x4
|--------------------------|
|--------------------------|
|--0-0-0--0-0--0-0--3-3-3--|
|--0-0-0--0-0--0-0--3-3-3--|
|--0-0-0--0-0--0-0--1-1-1--|

Intro/Verse:
e|------------------------------------------------------------------------|
B|------------------3-----------------------------------3-----------------|
G|------------------0--3-3-3-3-33--2--------------------0-----------------|
D|--------2h3p2-----2--3-3-3-3-33--2----------2h3p2-----2--3-3-3-5-5-7-7--|
A|-----0---------3--3--1-1-1-1-11--0-------0---------3--3--3-3-3-5-5-7-7--|
D|--0-----------------------------------0------------------3-3-3-5-5-7-7--|

e|-------------------------------------------------------------| x2
B|------------------3-----------------------------------3------|
G|------------------0--3-3-3-3-33--2--------------------0------|
D|--------2h3p2-----2--3-3-3-3-33--2----------2h3p2-----2--3~--|
A|-----0---------3--3--1-1-1-1-11--0-------0---------3--3--3~--|
D|--0-----------------------------------0------------------3~--|

|---------------------------|
|---------------------------|
|---------------------------|
|--x-x-x-x-0-0-x-x-x-x-0-0--|
|--x-x-x-x-0-0-x-x-x-x-0-0--|
|--x-x-x-x-0-0-x-x-x-x-0-0--|

Chorus
|---------------------------------| x4
|---------------------------------|
|-----------------------5-5-3--3--|
|--0-0-0--0-0-0--0-0-0--5-5-3--3--|
|--0-0-0--0-0-0--0-0-0--3-3-1--1--|
|--0-0-0--0-0-0--0-0-0------------|

Prechorus:
|--------------------------| x2
|--------------------------|
|--------------------------|
|--0-0-0--0-0--0-0--3-3-3--|
|--0-0-0--0-0--0-0--3-3-3--|
|--0-0-0--0-0--0-0--1-1-1--|
[ Tab from: http://www.guitartabs.cc/tabs/s/skillet/savior_tab_ver_4.html ]
Intro/Verse:
e|------------------------------------------------------------------------|
B|------------------3-----------------------------------3-----------------|
G|------------------0--3-3-3-3-33--2--------------------0-----------------|
D|--------2h3p2-----2--3-3-3-3-33--2----------2h3p2-----2--3-3-3-5-5-7-7--|
A|-----0---------3--3--1-1-1-1-11--0-------0---------3--3--3-3-3-5-5-7-7--|
D|--0-----------------------------------0------------------3-3-3-5-5-7-7--|

e|-------------------------------------------------------------| x2
B|------------------3-----------------------------------3------|
G|------------------0--3-3-3-3-33--2--------------------0------|
D|--------2h3p2-----2--3-3-3-3-33--2----------2h3p2-----2--3~--|
A|-----0---------3--3--1-1-1-1-11--0-------0---------3--3--3~--|
D|--0-----------------------------------0------------------3~--|

|---------------------------|
|---------------------------|
|---------------------------|
|--x-x-x-x-0-0-x-x-x-x-0-0--|
|--x-x-x-x-0-0-x-x-x-x-0-0--|
|--x-x-x-x-0-0-x-x-x-x-0-0--|

Chorus:
|---------------------------------| x6
|---------------------------------|
|-----------------------5-5-3--3--|
|--0-0-0--0-0-0--0-0-0--5-5-3--3--|
|--0-0-0--0-0-0--0-0-0--3-3-1--1--|
|--0-0-0--0-0-0--0-0-0------------|

weird Prechorus:
|---------------------------------------------------------| x2
|---------------------------------------------------------|
|---------------------------------------------------------|
|--x------0-0-0--0-0--0-0--3-3-3--0-0-0--0-0--0-0--3-3-3--|
|--x x16--0-0-0--0-0--0-0--3-3-3--0-0-0--0-0--0-0--3-3-3--|
|--x------0-0-0--0-0--0-0--3-3-3--0-0-0--0-0--0-0--3-3-3--|

Brigde:
|----------| x4
|----------|
|----------|
|--5-5--3--|
|--5-5--3--|
|--3-3--1--|

|-----------------------------| x4
|-----------------------------|
|-----------------------------|
|7-7--7-7--7-7--7-7-10101010--|
|7-7--7-7--7-7--7-7-10101010--|
|5-5--5-5--5-5--5-5--8-8-8-8--|

Intro/Verse:
e|------------------------------------------------------------------------|
B|------------------3-----------------------------------3-----------------|
G|------------------0--3-3-3-3-33--2--------------------0-----------------|
D|--------2h3p2-----2--3-3-3-3-33--2----------2h3p2-----2--3-3-3-5-5-7-7--|
A|-----0---------3--3--1-1-1-1-11--0-------0---------3--3--3-3-3-5-5-7-7--|
D|--0-----------------------------------0------------------3-3-3-5-5-7-7--|

e|-------------------------------------------------------------|
B|------------------3-----------------------------------3------|
G|------------------0--3-3-3-3-33--2--------------------0------|
D|--------2h3p2-----2--3-3-3-3-33--2----------2h3p2-----2--3~--|
A|-----0---------3--3--1-1-1-1-11--0-------0---------3--3--3~--|
D|--0-----------------------------------0------------------3~--|

Chorus:
|----------------------------------------------| x6
|----------------------------------------------|
|------------------------------------5-5-3--3--|
|-x-x-x-x-x-x---0-0-0--0-0-0--0-0-0--5-5-3--3--|
|-x-x-x-x-x-x---0-0-0--0-0-0--0-0-0--3-3-1--1--|
|-x-x-x-x-x-x---0-0-0--0-0-0--0-0-0------------|

Prechorus:
|--------------------------| x3
|--------------------------|
|--------------------------|
|--0-0-0--0-0--0-0--3-3-3--|
|--0-0-0--0-0--0-0--3-3-3--|
|--0-0-0--0-0--0-0--3-3-3--|

Outro:
|----------------|
|----------------|
|----------------|
|--0-0-0--0-0-0--|
|--0-0-0--0-0-0--|
|--0-0-0--0-0-0--|


if theres any problems email me
kthx
Comments