Skillet - Savior Chords & Tabs

 

Savior Chords & Tabs

Skillet Chords & Tabs

Version: 3 Type: Tab 0 ratings
1 star 2 stars 3 stars 4 stars 5 stars
comments

Savior Tab

Intro-Acoustic
e--------------------------------------------------------------------------
B-----------------3-----------------33-3-------------3--------33-----33-3--
G-----------------2-----------------22-2-------------2--------22-----22-2--
D--2---2/3--2---2-----------------------2---2/3-2--2-----------------------
A-----3------3------3/5-3--3--3--3---------3-----3-----3/5-3--3---3--------
D--------------------------------------------------------------------------


e-----------------------------------------------------------------
B----------------3-----------------33-3-------------3-------------
G----------------2-----------------22-2-------------2-------------
D--2---2/3--2--2-----------------------2---2/3-2--2---3/5-3-------
A-----3------3-----3/5-3--3--3--3---------3-----3-----------------
D-----------------------------------------------------------------

Heavy Distortion           Verse 1 (Starts with this in distortion)
e------------------\        |-----------------
B------------------ \       |-----------------
G-------------3333-  \x4    |-----------------
D-000-00-0-0-03333-  /      |-0---------------
A-000-00-0-0-01111- /       |-0---------------
D-000-00-0-0-0-----/        |-0---------------

Verse 1 (Starts the same time as ^ that but this is acoustic)
Same as the acoustic intro
e--------------------------------------------------------------------------
B-----------------3-----------------33-3-------------3--------33-----33-3--
G-----------------2-----------------22-2-------------2--------22-----22-2--
D--2---2/3--2---2-----------------------2---2/3-2--2-----------------------
A-----3------3------3/5-3--3--3--3---------3-----3-----3/5-3--3---3--------
D--------------------------------------------------------------------------

Verse 1 cont.
e-----------------------------------------------------------------\
B----------------3-----------------33-3-------------3------------- \
G----------------2-----------------22-2-------------2-------------  \x2
D--2---2/3--2--2-----------------------2---2/3-2--2---3/5-3-------  /
A-----3------3-----3/5-3--3--3--3---------3-----3----------------- /
D-----------------------------------------------------------------/

Pre-Chorus
e------------------
B------------------
G--xxxx2-2-xxxx2-2-
D--xxxx0-0-xxxx0-0-
A--xxxx0-0-xxxx0-0-
D--xxxx0-0-xxxx0-0-

Chorus (distortion)
e---------------------------------------------------------------\
B--------------------------------------------------------------- \
G---------------------------------------------------------------  \x2
D--000---000---000-5------x3--x3--000---000---000-3------x3--x3-  /
A--000---000---000-3------x1--x1--000---000---000-3------x3--x3- /
D--000---000---000--------x---x---000---000---000-3------x2--x2-/

Repeat intro:               Verse 2 (Starts with this in distortion)
e------------------\        |-----------------
B------------------ \       |-----------------
G-------------3333-  \x4    |-----------------
D-000-00-0-0-03333-  /      |-0---------------
A-000-00-0-0-01111- /       |-0---------------
D-000-00-0-0-0-----/        |-0---------------

Verse 2 (Exactly the same as Verse 1)
e--------------------------------------------------------------------------
B-----------------3-----------------33-3-------------3--------33-----33-3--
G-----------------2-----------------22-2-------------2--------22-----22-2--
D--2---2/3--2---2-----------------------2---2/3-2--2-----------------------
A-----3------3------3/5-3--3--3--3---------3-----3-----3/5-3--3---3--------
D--------------------------------------------------------------------------
[ Tab from: http://www.guitartabs.cc/tabs/s/skillet/savior_tab_ver_3.html ]
Verse 2 cont.
e-----------------------------------------------------------------\
B----------------3-----------------33-3-------------3------------- \
G----------------2-----------------22-2-------------2-------------  \x2
D--2---2/3--2--2-----------------------2---2/3-2--2---3/5-3-------  /
A-----3------3-----3/5-3--3--3--3---------3-----3----------------- /
D-----------------------------------------------------------------/

Pre-Chorus
e------------------
B------------------
G--xxxx2-2-xxxx2-2-
D--xxxx0-0-xxxx0-0-
A--xxxx0-0-xxxx0-0-
D--xxxx0-0-xxxx0-0-

Chorus (Distortion)
e---------------------------------------------------------------\
B--------------------------------------------------------------- \
G---------------------------------------------------------------  \x2
D--000---000---000-5------x3--x3--000---000---000-3------x3--x3-  /
A--000---000---000-3------x1--x1--000---000---000-3------x3--x3- /
D--000---000---000--------x---x---000---000---000-3------x2--x2-/

Bridge              Bridge
Guitar 1-           Guitar 2-
Same as chorus      ---------------------------------------\
                    --------------------------------------- \
                    ---------------------------------------  \x2
                    ---------------------------------------  /
                    --7--8---------------7--8-------------- /
                    ----------10-----------------7---------/

Bridge cont.
 "I am the eyes inside staring back at you"                           \
e----------------------------------------------------------------------\
B---------------------------------------------------------------------- \
G----------------------------------------------------------------------  \x2
D-------------------------------------000-00-0-0-03333000-00-0-0-03333-  /
A-------------------------------------000-00-0-0-01111000-00-0-0-01111- /
D-------------------------------------000-00-0-0-0----000-00-0-0-0-----/

e--------------------------------\                ------------------\
B-------------------------------- \               ------------------ \
G----------------------------757-  \x2            -------------5555-  \x4
D--5--5xx3---------5--5xx3-------  /              -57-57-57-57-3333-  /
A--3--3xx1---------3--3xx1------- /               -35-35-35-35------ /
D--------------------------------/                ------------------/

Repeat the 2nd verse but only play it once
e--------------------------------------------------------------------------
B-----------------3-----------------33-3-------------3--------33-----33-3--
G-----------------2-----------------22-2-------------2--------22-----22-2--
D--2---2/3--2---2-----------------------2---2/3-2--2-----------------------
A-----3------3------3/5-3--3--3--3---------3-----3-----3/5-3--3---3--------
D--------------------------------------------------------------------------


e-----------------------------------------------------------------
B----------------3-----------------33-3-------------3-------------
G----------------2-----------------22-2-------------2-------------
D--2---2/3--2--2-----------------------2---2/3-2--2---3/5-3-------
A-----3------3-----3/5-3--3--3--3---------3-----3-----------------
D-----------------------------------------------------------------

Chorus
e---------------------------------------------------------------\
B--------------------------------------------------------------- \
G---------------------------------------------------------------  \x2
D--000---000---000-5------x3--x3--000---000---000-3------x3--x3-  /
A--000---000---000-3------x1--x1--000---000---000-3------x3--x3- /
D--000---000---000--------x---x---000---000---000-3------x2--x2-/

End of the Song
e------------------\        --------------------
B------------------ \       --------------------
G-------------3333-  \x3    --------------------
D-000-00-0-0-03333-  /      --000---000---0000--
A-000-00-0-0-01111- /       --000---000---0000--
D-000-00-0-0-0-----/        --000---000---0000--
Comments