Skillet - Safe With You Chords & Tabs

 

Safe With You Chords & Tabs

Skillet Chords & Tabs

Version: 1 Type: Bass Tab 0 ratings
1 star 2 stars 3 stars 4 stars 5 stars
comments

Safe With You Bass Tab

Title: Safe With You
Artist: Skillet
Album: Skillet
Tabbed by: Josh Mauldin, dr_spangle@hotmail.com

 Hi boys and girls, this is Safe With You by Skillet, the absolute best
band out there. I was playing around on the bass and here's what I've
sussed.

 OK, you play a progression like this for the intro and the verse:

G ---------------------------------------------------------------------
D ---------------------------------------------------------------------
A --3--3--2--2--0------------------------------------------------------
E -----------------1--1------------------------------------------------

 Then for the chorus:
[ Tab from: http://www.guitartabs.cc/tabs/s/skillet/safe_with_you_btab.html ]
G ---------------------------------------------------------------------
D ---------------------------------------------------------------------
A --2--2--0--0--------3--3---------------------------------------------
E --------------1--1---------------------------------------------------

* Please note that this IS NOT the correct ammount of times that you
play the notes! *

 That's pretty much it for now, I still have a little to work on for the
rest of the song. This song is absolutely perfect for all your praise
and worship needs. I know there's maybe a couple parts that aren't
right, but this is my first tab, so go easy on me. Please send all
corrections, questions, etc. to dr_spangle@hotmail.com

Comments