Skillet - Paint Chords & Tabs

 

Paint Chords & Tabs

Skillet Chords & Tabs

Version: 1 Type: Tab 0 ratings
1 star 2 stars 3 stars 4 stars 5 stars
comments

Paint Tab

#-----------------------------------------------------------------------------#
#-- File created with Instab - http://www.pconline.com/~smcarey/instab.html --#
#-----------------------------------------------------------------------------#

Author/Artist: Skillet
Title: Paint
Album: Skillet
Transcribed by: Jed
Email: CokeMan007@usa.net

Drop D tuning.  Ignore the top 2 lines, and enjoy!

-----------------|-----------------|-----------------|-----------------|------|
-----------------|-----------------|-----------------|-----------------|------|
-----------------|-----------------|-----------------|-----------------|------|
-----------------|-----------------|-----------------|-----------------|------|
-----------------|-1-1-1-0-0-1-1-1-|-----------------|-3-3-3-2-2-3-3-3-|-4x---|
-0-0-0-0-3-3-3-3-|-----------------|-0-0-0-0-3-3-3-3-|-----------------|------|
 Intro(above)/Verse(below)

-----------------|----------------|---------------|---------------------|-----|
-----------------|----------------|---------------|---------------------|-----|
-----------------|----------------|---------------|---------------------|-----|
-----------------|8-8-8-7-7-8-8-8-|---------------|10-10-10-9-9-10-10-10|2x---|
-5-5-5-5-8-8-8-8-|----------------|5-5-5-5-8-8-8-8|---------------------|-----|
-----------------|----------------|---------------|---------------------|-----|
 Intro(1x)/Verse/Chorus(below)
[ Tab from: http://www.guitartabs.cc/tabs/s/skillet/paint_tab.html ]
-----------------|-----------------|----------------|-----------------|-------|
-----------------|-----------------|----------------|-----------------|-------|
-----------------|-----------------|----------------|-----------------|-------|
-----------------|-----------------|----------------|-----------------|-------|
-2-2-----------0-|---0---2---2-2---|-2-2-----------0|---0-0---2-------|-------|
-------0---0-----|-----------------|-------0---0----|-----------------|-------|
 Intro(1x)/Verse/Chorus/Middle Section(below)

-----------------|-----------------|-----------------|-----------------|------|
-----------------|-----------------|-----------------|-----------------|------|
-----------------|-----------------|-----------------|-----------------|------|
-----------------|-----------------|-----------------|-----------------|------|
-----------------|-3-3-3-2-2-3-3-3-|-----------------|-5-5-5-4-4-5-5-5-|-2x---|
-2-2-2-2-5-5-5-5-|-----------------|-2-2-2-2-5-5-5-5-|-----------------|------|
 Hit low "D" (let ring)/drums/Hit "D" (let ring)/then..(below)

------------------------------------------------------------------------------|
------------------------------------------------------------------------------|
------------------------------------------------------------------------------|
------------------------------------------------------------------------------|
------------------------------------------------------------------------------|
-0-0-0-0-0-0-0-0-0-0-0-0-0-0-0------------------------------------------------|
 Chorus(eventually stop on "A"/Outro(below)

-----------|------------------------------------------------------------------|
-----------|------------------------------------------------------------------|
-----------|------------------------------------------------------------------|
-----------|------------------------------------------------------------------|
-2-2---2-2-|------------------------------------------------------------------|
-----------|------------------------------------------------------------------|
 Hit "B" many times
Comments