Skillet - I Trust You Chords & Tabs

 

I Trust You Chords & Tabs

Skillet Chords & Tabs

Version: 2 Type: Bass Tab 0 ratings
1 star 2 stars 3 stars 4 stars 5 stars
comments

I Trust You Bass Tab

   
Song: "I Trust You"
Artist: Skillet
Album: Invincible

 
      Introduction/Chorus
(Don't play first few measures)
    F#      C#   G#
G|--------------------------
D|--------------------------
A|----------4444------------
E|--22222222----4444--------  

          Verse 1
 (Don't play first part)

G|--------------------------------------
D|--------------------------------------
A|----------0-0-0-0-2-2-2-2-------------
E|--2-2-2-2-----------------2-2-2-2-----  

        Verse Thing
G|--------------------------------------
D|--------------------------------------
A|--------------------------------------
E|--2-2-0-2-2-0-2-----------------------

      Don't play during Pre-Chorus

          Verse II
  (Don't play first part)
[ Tab from: http://www.guitartabs.cc/tabs/s/skillet/i_trust_you_btab_ver_2.html ]
G|--------------------------------------
D|--------------------------------------
A|----------00000000-22222222-----------
E|--22222222-----------------*22222222*-
                             *First time only*
           Bridge

G|--------------------------------------
D|--------------------------------------
A|---------------22222222---------------
E|--222222222222----------2-2-0-2-2-0-2-

           Riff Thing

G|-------------------------------------
D|-------------------------------------
A|--------00-0--22-2-------------------
E|--22-2-------------22-2--------------

*Order*

Introduction 4x
Verse Thing 1x
Verse I 2x
Verse Thing 1x
Chorus 4x
Verse Thing 1x
Verse II 2x
Verse Thing 1x
Chorus 4x
Bridge 2x
Riff Thing 2x
Chorus until end

Listen for the pauses in the Chorus and Bridge and just
listen for the overall timing for everything. I might have made mistakes int the the number of times you play each section, but you guys can figure it out.
Email me and let me know how I did, and if you need prayer.

Your brother from another mother
The Poet
Philippians 4:13 
Comments