Skillet - Alien Youth Chords & Tabs

 

Alien Youth Chords & Tabs

Skillet Chords & Tabs

Version: 1 Type: Chords 0 ratings
1 star 2 stars 3 stars 4 stars 5 stars
comments

Alien Youth Chords

   
This song and this band rule!  Enjoy!



INTRO
--x--x-x-x-x--x--x-x-x-x--x
--x--x-x-x-x--x--x-x-x-x--x
--x--x-x-x-x--x--x-x-x-x--x
--8--8-8-8-8--5--5-5-5-5-s8     repeat 12 times
--6--6-6-6-6--3--3-3-3-3-s6
--6--6-6-6-6--3--3-3-3-3-s6

VERSE
no guitar-just bass

PRE-CHORUS
D5  Bbm  Gm  D5  Bbm
x----x---x---x---x
x----x---x---x---x
7----x---x---7---x
7----8---5---7---8
5----8---5---5---8
x----6---3---x---6
[ Tab from: http://www.guitartabs.cc/tabs/s/skillet/alien_youth_crd.html ]
CHORUS
C5  Eb5  Bbm  C5                       G#m  Gm  Fm
x----x----x----x                       x----x----x
x----x----x----x                       x----x----x
5----8----x----5    repeat 3 times     x----x----x
5----8----8----5                       6----5----3
3----6----8----3                       6----5----3
x----x----6----x                       4----3----1

after the chorus they start over with the intro.  there's a guitar 
solo somewhere in there that I haven't figured out yet. e-mail me if
you do at superman6574@hotmail.com.
Comments