Skillet - Alien Youth Chords & Tabs

 

Alien Youth Chords & Tabs

Skillet Chords & Tabs

Version: 1 Type: Bass Tab 0 ratings
1 star 2 stars 3 stars 4 stars 5 stars
comments

Alien Youth Bass Tab

   
Alien Youth
Skillet

I was really dissipointed at the organazation of all the other Alien Youth
tabs, because I really wanted to know the song quickly and easily.  Now that
I have the song figured out, I made this easy to understand tab for all
you 'panheads' who like this song as much as I do.  GOD BLESS!

Skillet - Alien Youth
Album - Alien Youth
Tuning - Normal

Intro (after the guitar plays his riff four times, you start on the fifth)
G|------------------|
D|---------------b8-|
A|-6-6-6-6-3-3-3----|
E|------------------|   4x

Heavy Intro (after you play your intro riff four times)
G|------------------|
D|-8-8-8-8-5-5-5-b8-|
A|-6-6-6-6-3-3-3----|
E|------------------|   4x

Verse
G|------------------|-------------------|
D|------------------|---------------b8--|
A|-6-6-6-6-6-3-3-3--|-6-6-6-6-3-3-3-----|
E|------------------|-------------------|
(1st bar 3 times, 2nd bar once, repeat)

Pre-chorus
G|-------------------|----------|
D|-------------------|----------|
A|---------------1-1-|-33333333-|
E|-3-3-3-3-1-1-1-----|----------|
(1st bar 3 times, 2nd bar once)

Chorus
G|---------------------------------|--------------------------|
D|---------------------------------|--------------------------|
A|---------6-6-6-6---------3-3-3-3-|--------------------------|
E|-1-1-1-1---------4-4-4-4---------|-4-4-4-4-3-3-3-3-1-1-1-1--|
(1st bar 3 times, 2nd bar once)

Heavy Intro
G|------------------|
D|-8-8-8-8-5-5-5-b8-|
A|-6-6-6-6-3-3-3----|
E|------------------|   4x
[ Tab from: http://www.guitartabs.cc/tabs/s/skillet/alien_youth_btab.html ]
Verse
G|------------------|-------------------|
D|------------------|---------------b8--|
A|-6-6-6-6-6-3-3-3--|-6-6-6-6-3-3-3-----|
E|------------------|-------------------|
(1st bar 3 times, 2nd bar once, repeat)

Bridge
G|----------------------------------|
D|----------------------------------|
A|-5-5-5-5-5-5-5-5-1-1-1-1----------|
E|-------------------------3-3-3-3--|   2x

Chorus
G|---------------------------------|--------------------------|
D|---------------------------------|--------------------------|
A|---------6-6-6-6---------3-3-3-3-|--------------------------|
E|-1-1-1-1---------4-4-4-4---------|-4-4-4-4-3-3-3-3-1-1-1-1--|
(1st bar 3 times, 2nd bar once)

Heavy Intro
G|------------------|
D|-8-8-8-8-5-5-5-b8-|
A|-6-6-6-6-3-3-3----|
E|------------------|   4x

Pre-chorus
G|-------------------|
D|-------------------|
A|---------------1-1-|
E|-3-3-3-3-1-1-1-----|

Bridge
G|----------------------------------|------------------|
D|----------------------------------|------------------|
A|-5-5-5-5-5-5-5-5-1-1-1-1----------|-5-5-5-5-5-5-5-5--|
E|-------------------------3-3-3-3--|------------------|
(1st bar 3 times, 2nd bar once)

Chorus
G|---------------------------------|--------------------------|
D|---------------------------------|--------------------------|
A|---------6-6-6-6---------3-3-3-3-|--------------------------|
E|-1-1-1-1---------4-4-4-4---------|-4-4-4-4-3-3-3-3-1-1-1-1--|
(1st bar 3 times, 2nd bar once, repeat)

Heavy Intro
G|------------------|
D|-8-8-8-8-5-5-5-b8-|
A|-6-6-6-6-3-3-3----|
E|------------------|   4x

Any questions, comments, or concerns?  E-mail me at Jesusfreak1181@juno.com
Comments