Skid Row - Youth Gone Wild Chords & Tabs

 

Youth Gone Wild Chords & Tabs

Skid Row Chords & Tabs

Version: 4 Type: Tab 0 ratings
1 star 2 stars 3 stars 4 stars 5 stars
comments

Youth Gone Wild Tab

Artist - Skid Row
Song - Youth Gone Wild

Intro:
E-----------------------------------------------------------|
B-----------------------------------------------------------|
G---------------5-3-0-2-3-2-0---5-3-0-2-3-3---5-3-0-2-3-3---|
D-5-8--5-8---5--5-3-0-3-3-3-0---5-3-0-3-3-1---5-3-0-3-3-1---|
A-5-8--5-8---5----------------------------------------------|
E-3-6--3-6---3----------------------------------------------|

E-----------------------------------------------------------|
B-----------------------------------------------------------|
G-5-3-0---3-----5-3-0-2-3-2-0---5-3-0-2-3-3---5-3-0-2-3-3---|
D-5-3-0---3-3-5-5-3-0-3-3-3-0---5-3-0-3-3-1---5-3-0-3-3-1---|
A---------1-3-5---------------------------------------------|
E-----------1-3---------------------------------------------|

E------------------------|
B------------------------|
G-5-3-0---3--------------|
D-5-3-0---3-3-5----------|
A---------1-3-5----------|
E-----------1-3----------|

Verse 1:
E----------------------------------------------------|
B----------------------------------------------------|
G-2-3~~~~----2-3~~~~----2-3~~~~----2-3~~~~-----------|
D-3-5~~~~----3-1~~~~----3-5~~~~----3-1~~~~---1p0h1p0-|
A--------------------------------------------1p0h1p0-|
E----------------------------------------------------|

Pre-Chorus:
E---------------------------------------------------------|
B---------------------------------------------------------|
G---------------------------------5p3h5---0-----5---------|
D-3--3-------3-------3-------3-5?-5p3h5---0--5--5---------|
A-3--3-------3-------3-------3-5-------------5----5-3-----|
E-1--1-1-1-1-1-1-1-1-1-1-1-1-1-3-------------3--------6-5-|

E-----------------------------------------------------|
B-----------------------------------------------------|
G-------------------------------8-----7---7--8--8-8-8-|
D-3--3-------3-------3-------3--8-----7---7--8--8-8-8-|
A-3--3-------3-------3-------3--6-----5---5--6--6-6-6-|
E-1--1-1-1-1-1-1-1-1-1-1-1-1-1------------------------|

Chorus:
E------------------------------------------------|
B------------------------------------------------|
G----5-3-0-2-3-2-0---5-3-0-2-3-3---5-3-0-2-3-3---|
D-5--5-3-0-3-3-3-0---5-3-0-3-3-1---5-3-0-3-3-1---|
A-5----------------------------------------------|
E-3----------------------------------------------|

E-----------------------------------------------------------|
B-----------------------------------------------------------|
G-5-3-0---3-----5-3-0-2-3-2-0---5-3-0-2-3-3---5-3-0-2-3-3---|
D-5-3-0---3-3-5-5-3-0-3-3-3-0---5-3-0-3-3-1---5-3-0-3-3-1---|
A---------1-3-5---------------------------------------------|
E-----------1-3---------------------------------------------|

E------------------------|
B------------------------|
G-5-3-0---3--------------|
D-5-3-0---3-3-5----------|
A---------1-3-5----------|
E-----------1-3----------|

Verse 2:
E----------------------------------------------------|
B----------------------------------------------------|
G-2-3~~~~----2-3~~~~----2-3~~~~----2-3~~~~-----------|
D-3-5~~~~----3-1~~~~----3-5~~~~----3-1~~~~---1p0h1p0-|
A--------------------------------------------1p0h1p0-|
E----------------------------------------------------|

Pre-Chorus:
E---------------------------------------------------------|
B---------------------------------------------------------|
G---------------------------------5p3h5---0-----5---------|
D-3--3-------3-------3-------3-5?-5p3h5---0--5--5---------|
A-3--3-------3-------3-------3-5-------------5----5-3-----|
E-1--1-1-1-1-1-1-1-1-1-1-1-1-1-3-------------3--------6-5-|

E-----------------------------------------------------|
B-----------------------------------------------------|
G-------------------------------8-----7---7--8--8-8-8-|
D-3--3-------3-------3-------3--8-----7---7--8--8-8-8-|
A-3--3-------3-------3-------3--6-----5---5--6--6-6-6-|
E-1--1-1-1-1-1-1-1-1-1-1-1-1-1------------------------|
[ Tab from: http://www.guitartabs.cc/tabs/s/skid_row/youth_gone_wild_tab_ver_4.html ]
Chorus:
E------------------------------------------------|
B------------------------------------------------|
G----5-3-0-2-3-2-0---5-3-0-2-3-3---5-3-0-2-3-3---|
D-5--5-3-0-3-3-3-0---5-3-0-3-3-1---5-3-0-3-3-1---|
A-5----------------------------------------------|
E-3----------------------------------------------|

E-----------------------------------------------------------|
B-----------------------------------------------------------|
G-5-3-0---3-----5-3-0-2-3-2-0---5-3-0-2-3-3---5-3-0-2-3-3---|
D-5-3-0---3-3-5-5-3-0-3-3-3-0---5-3-0-3-3-1---5-3-0-3-3-1---|
A---------1-3-5---------------------------------------------|
E-----------1-3---------------------------------------------|

E------------------------|
B------------------------|
G-5-3-0---3--------------|
D-5-3-0---3-3-5----------|
A---------1-3-5----------|
E-----------1-3----------|

Solo:
E-15b17~~~~~-13---13----------------------------------------|
B---------------15--13-15p13h15p13--------------------------|
G----------------------------------15p12h15p12--------------|
D---------------------------------------------15vvvv--------|
A-----------------------------------------------------------|
E-----------------------------------------------------------|

E-17p15h17--15--------------------------------------15h17---|
B---------18--15-18--15------------------------15h18--------|
G------------------17--14-17--14----------14h17-------------|
D---------------------------17--15vv-15h17------------------|
A-----------------------------------------------------------|
E-----------------------------------------------------------|

E-17b19vvvv-r17-|-----------------------------------|
B---------------|-----------------------------------|
G---------------|-5h7p5--5-----7p5-5-7b9r7p5h7b9vvv-|
D---------------|------h7---5h7---7-----------------|
A---------------|-----------------------------------|
E---------------|-----------------------------------|

E-5---------------------------------------------------------|
B--8-6-6----------------------------------------------------|
G-----7-7-5-5-----------------------------------------------|
D----------7-7-5--------------------------------------------|
A---------------8-6p5h6p5h6p5h6p5---------------------------|
E--------------------------------6p5h6p5h6p5h6p5\-----------|

Bridge:
E------------------------------------------------|
B------------------------------------------------|
G--------------3----------------------3----------|
D--------------3-3-5------------------3-3-5------|
A--------------1-3-5------------------1-3-5------|
E----------------1-3--------------------1-3------|

Outro:
E------------------------------------------------------------|
B------------------------------------------------------------|
G-5-3-0-2-3-2-0---5-3-0-2-3-3---5-3-0-2-3-3----5-3-0---3-----|
D-5-3-0-3-3-3-0---5-3-0-3-3-1---5-3-0-3-3-1----5-3-0---3-3-5-|
A------------------------------------------------------1-3-5-|
E--------------------------------------------------------1-3-|

E----------------------------------------------------------|
B----------------------------------------------------------|
G-5-3-0-2-3-2-0---5-3-0-2-3-3---5-3-0-2-3-3--5-3-0---3-----|
D-5-3-0-3-3-3-0---5-3-0-3-3-1---5-3-0-3-3-1--5-3-0---3-3-5-|
A----------------------------------------------------1-3-5-|
E------------------------------------------------------1-3-|

E------------------------------------------------------------|
B------------------------------------------------------------|
G-5-3-0-2-3-2-0---5-3-0-2-3-3---5-3-0-2-3-3----5-3-0---3-----|
D-5-3-0-3-3-3-0---5-3-0-3-3-1---5-3-0-3-3-1----5-3-0---3-3-5-|
A------------------------------------------------------1-3-5-|
E--------------------------------------------------------1-3-|

E----------------------------------------------------------|
B----------------------------------------------------------|
G-5-3-0-2-3-2-0---5-3-0-2-3-3---5-3-0-2-3-3--5-3-0---3-----|
D-5-3-0-3-3-3-0---5-3-0-3-3-1---5-3-0-3-3-1--5-3-0---3-3-5-|
A----------------------------------------------------1-3-5-|
E------------------------------------------------------1-3-|
Comments