Skid Row - Youth Gone Wild Chords & Tabs

 

Youth Gone Wild Chords & Tabs

Skid Row Chords & Tabs

Version: 2 Type: Tab 0 ratings
1 star 2 stars 3 stars 4 stars 5 stars
comments

Youth Gone Wild Tab

intro
E|------------------------|
B|------------------------|
G|-------3-3--3-3---------|
D|-------1-1--1-1---------|
A|-------1-1--1-1---------|
E|------------------------|

E|------------------------|------------------------|
B|------------------------|------------------------|
G|-------5-3-0--2-3-0-----|------5-3-0--2-3-3------|
D|-5-----5-3-0--2-3-0-----|------5-3-0--2-3-1------|
A|-5----------------------|------------------------|
E|-3----------------------|------------------------|
[ Tab from: http://www.guitartabs.cc/tabs/s/skid_row/youth_gone_wild_tab_ver_2.html ]
------------------------|---------------------|
------------------------|---------------------|
-----5-3-0--2-3-3-------|---------------------|
-----5-3-0--2-3-1-------|--1p0-0-0------------| x2
------------------------|-----------1p0-0-0---|
------------------------|---------------------|

e|---------|
b|---------| 
g|---------|
d|--5------|  x1 just let it go for 4 bars
a|--5------|
e|--3------|


Chorus
e|---------|
b|---------|
g|--2---3*-|
d|--3---5*-|x2
a|---------|
e|---------|
* means to let ring for 2 measures
Comments