Skid Row - Sweet Little Sister Chords & Tabs

 

Sweet Little Sister Chords & Tabs

Skid Row Chords & Tabs

Version: 1 Type: Bass Tab 0 ratings
1 star 2 stars 3 stars 4 stars 5 stars
comments

Sweet Little Sister Bass Tab

   
-------------------------------------------------------------------------------
                             Sweet Little Sister - Skid Row
-------------------------------------------------------------------------------

Tabbed by: ChrisT
 
From the Album: Skid Row (1989) 

Tuning: Standard

Intro                      Repeat x4   
G|----------------------------------|
D|o--------------------------------o|
A|o--------------------------------o|
E|---0-2-2-2-2-2-2-2-2-0-2-3-5--5---|

Verse 1
G|------------------------------------------------------------------|
D|o-----------------------------------------------------------------|
A|o-----------------------------------------------------------------|
E|---2-2-2-2-2-2-2-2-2-2-2-2-2-2-5-5-5-5-5-5-5-5-5-5-5-5-5-5-5-5----|

G|------------------------------------------------------------------|
D|-----------------------------------------------------------------o|
A|-----------------------------7h9---------------------------------o|
E|---7-7-7-7-0-7-7-7-7-0-5-7-9-----0-2-2-2-2-2-2-2-2-0-2-3-5--5-----|

G|----------------------------------|
D|----------------------------------|
A|----------------------------------|
E|---0-2-2-2-2-2-2-2-2-0-2-3-5--5---|

Pre-Chorus
G|------------------------------------------------------------------|
D|------------------------------------------------------------------|
A|----------------------------------------------------------5h7p5---|
E|--7--7-7-7-7-7-7-7-7-7-7-7-7-9-7-5--5-5-5-5-5-5-5-5-5-5-5---------|

G|---------------------------------------------------------|
D|---------------------------------------------------------|
A|-----------------------------------4-4---4-4---5---/12\--|
E|--7--7-7-7-7-7-7-7-7-7-7-7-7-7-7-------------------------|

Chorus
G|--------------------------------------------------|
D|o-------------------------------------------------|
A|o-------------0h2h4p2p0-------------2--2--2-2-2---|
E|----2---0---2-----------0--0--0-0-0---------------|

G|--------------------------------------------------|
D|-------------------------------------------------o|
A|-------------0h2h4p2p0---------------------------o|
E|---2---0---2-----------5--5--5-5-5-0--0--0-0-0----|

                             Repeat x4
G|------------------------------------|
D|o----------------------------------o|
A|o----------------------------------o|
E|----0-2-2-2-2-2-2-2-2-0-2-3-5--5----|

Verse 2
G|------------------------------------------------------------------|
D|o-----------------------------------------------------------------|
A|o-----------------------------------------------------------------|
E|---2-2-2-2-2-2-2-2-2-2-2-2-2-2-5-5-5-5-5-5-5-5-5-5-5-5-5-5-5-5----|

G|------------------------------------------------------------------|
D|-----------------------------------------------------------------o|
A|-----------------------------7h9---------------------------------o|
E|---7-7-7-7-0-7-7-7-7-0-5-7-9-----0-2-2-2-2-2-2-2-2-0-2-3-5--5-----|

G|----------------------------------|
D|----------------------------------|
A|----------------------------------|
E|---0-2-2-2-2-2-2-2-2-0-2-3-5--5---|
[ Tab from: http://www.guitartabs.cc/tabs/s/skid_row/sweet_little_sister_btab.html ]
Pre-Chorus
G|------------------------------------------------------------------|
D|------------------------------------------------------------------|
A|----------------------------------------------------------5h7p5---|
E|--7--7-7-7-7-7-7-7-7-7-7-7-7-9-7-5--5-5-5-5-5-5-5-5-5-5-5---------|

G|---------------------------------------------------------|
D|---------------------------------------------------------|
A|-----------------------------------4-4---4-4---5---/12\--|
E|--7--7-7-7-7-7-7-7-7-7-7-7-7-7-7-------------------------|

Chorus
G|--------------------------------------------------|
D|o-------------------------------------------------|
A|o-------------0h2h4p2p0-------------2--2--2-2-2---|
E|----2---0---2-----------0--0--0-0-0---------------|

                                       Not 2nd time
G|------------------------------------|-----------------|
D|------------------------------------|----------------o|
A|-------------0h2h4p2p0--------------|----------------o|
E|---2---0---2-----------5--5--5-5-5--|--0--0--0-0-0----|

Guitar Solo
G|-------------------------------------------------------------------|
D|-------------------------------------------------------------------|
A|---5---5-5-5-5-5-5-5-5-5-5-5-4-2---------------------------0-2-4---|
E|---------------------------------2---2-2-2-2-2-2-2-2-2-2-2---------|

G|-------------------------------------------------------------------|
D|-------------------------------------------------------------------|
A|---5---5-5-5-5-5-5-5-5-5-5-5-5-5-5-4---4-4-4-4-4-4-4-5-----7-------|
E|-------------------------------------------------------------------|

G|-----------------------------|
D|-----4-----4-4-4-4-4-2-------|
A|-----------------------4-2---|
E|---2-------------------------|

G|------------------------------------------------------------------|
D|------------------------------------------------------------------|
A|----------------------------------------------------------5h7p5---|
E|--7--7-7-7-7-7-7-7-7-7-7-7-7-9-7-5--5-5-5-5-5-5-5-5-5-5-5---------|

G|---------------------------------------------------------|
D|---------------------------------------------------------|
A|-----------------------------------4-4---4-4---5---/12\--|
E|--7--7-7-7-7-7-7-7-7-7-7-7-7-7-7-------------------------|

Chorus
G|--------------------------------------------------|
D|o-------------------------------------------------|
A|o-------------0h2h4p2p0-------------2--2--2-2-2---|
E|----2---0---2-----------0--0--0-0-0---------------|

G|--------------------------------------------------|
D|-------------------------------------------------o|
A|-------------0h2h4p2p0---------------------------o|
E|---2---0---2-----------5--5--5-5-5-0--0--0-0-0----|

                             Repeat x4
G|------------------------------------|
D|o----------------------------------o|
A|o----------------------------------o|
E|----0-2-2-2-2-2-2-2-2-0-2-3-5--5----|


| /  slide up
| \  slide down
| h  hammer-on
| p  pull-off
| ~  vibrato
| +  harmonic
| x  Mute note
===============================================================================
Comments