Skid Row - Subhuman Race Chords & Tabs

 

Subhuman Race Chords & Tabs

Skid Row Chords & Tabs

Version: 2 Type: Tab 0 ratings
1 star 2 stars 3 stars 4 stars 5 stars
comments

Subhuman Race Tab

   
#----------------------------------PLEASE NOTE---------------------------------#
#This file is the author's own work and represents their interpretation of the #
#song. You may only use this file for private study, scholarship, or research. #
#------------------------------------------------------------------------------#
#


"Subhuman Race"
(Bolan, Hill, Snake)

(From the album sUBHUMAN rACE)


Dropped-D tuning

intro:

e |-------------------------------|----------------------------|
B |-------------------------------|----------------------------|
G |-------------------------------|----------------------------|
D |-x\-0--3--5--6--5--3--5--3-----|--0--3--5--6--5--3--5--3----|
A |-x\-0--3--5--6--5--3--5--3-----|--0--3--5--6--5--3--5--3----|
E |-x\-0--3--5--6--5--3--5--3-----|--0--3--5--6--5--3--5--3----|

e |-----------------------------|-------------------------------|
B |-----------------------------|-------------------------------|
G |-----------------------------|-------------------------------|
D |--0--3--5--6--5--3--5--3-----|--0--3--5--6--5--3--x-x-x-x-x--|
A |--0--3--5--6--5--3--5--3-----|--0--3--5--6--5--3--x-x-x-x-x--|
E |--0--3--5--6--5--3--5--3-----|--0--3--5--6--5--3--x-x-x-x-x--|


e |-----------------------------|----------------------------|
B |-----------------------------|----------------------------|
G |-----------------------------|----------------------------|
D |--0--3--5--6--5--3--5--3-----|--0--3--5--6--5--3--5--3----|
A |--0--3--5--6--5--3--5--3-----|--0--3--5--6--5--3--5--3----|
E |--0--3--5--6--5--3--5--3-----|--0--3--5--6--5--3--5--3----|

e |-----------------------------|-------------------------------|
B |-----------------------------|-------------------------------|
G |-----------------------------|-------------------------------|
D |--0--3--5--6--5--3--5--3-----|--0--3--5--6--5--3--x-x-x-x-x--|
A |--0--3--5--6--5--3--5--3-----|--0--3--5--6--5--3--x-x-x-x-x--|
E |--0--3--5--6--5--3--5--3-----|--0--3--5--6--5--3--x-x-x-x-x--|

verse 1:

e |-------------------------------|--------------------------------|
B |-------------------------------|--------------------------------|
G |-------------------------------|--------------------------------|
D |--0-2-----2---------2------2---|--0-2-----2---------2------2----|
A |--0-2-----2---------2------2---|--0-2-----2---------2------2----|
E |--0-2-2-2-2--2-2--2-2--2-2-2---|--0-2-2-2-2--2-2--2-2--2-2-2----|

e |-------------------------------|--------------------------------|
B |-------------------------------|--------------------------------|
G |-------------------------------|--------------------------------|
D |--0-2-----2---------2------2---|--0-2-----2---------2------2----|
A |--0-2-----2---------2------2---|--0-2-----2---------2------2----|
E |--0-2-2-2-2--2-2--2-2--2-2-2---|--0-2-2-2-2--2-2--2-2--2-2-2----|

e |-------------------------------|--------------------------------|
B |-------------------------------|--------------------------------|
G |-------------------------------|--------------------------------|
D |--0-2-----2---------2------2---|--0-2-----2---------2------2----|
A |--0-2-----2---------2------2---|--0-2-----2---------2------2----|
E |--0-2-2-2-2--2-2--2-2--2-2-2---|--0-2-2-2-2--2-2--2-2--2-2-2----|

e |-------------------------------|--------------------------------|
B |-------------------------------|--------------------------------|
G |-------------------------------|--------------------------------|
D |--0-2-----2---------2------2---|--0-2-----2---------2------2----|
A |--0-2-----2---------2------2---|--0-2-----2---------2------2----|
E |--0-2-2-2-2--2-2--2-2--2-2-2---|--0-2-2-2-2--2-2--2-2--2-2-2----|

PRE 1:
e |-------------------------------|-------------------------------|
B |-------------------------------|-------------------------------|
G |-------------------------------|-------------------------------|
D |--3-3-3-3--0-0-0---------------|--3-3-3-3--0-0-0---------------|
A |--3-3-3-3--0-0-0--3h5--3h5-----|--3-3-3-3--0-0-0--3h5--3h5-----|
E |--3-3-3-3--0-0-0---------------|--3-3-3-3--0-0-0---------------|

e |-------------------------------|-------------------------------|
B |-------------------------------|-------------------------------|
G |-------------------------------|-------------------------------|
D |--3-3-3-3--0-0-0--3h5--3h5-----|--3-3-3-3--3--5----------------|
A |--3-3-3-3--0-0-0--3h5--3h5-----|--3-3-3-3--3--5----------------|
E |--3-3-3-3--0-0-0--3h5--3h5-----|--3-3-3-3--3--5----------------|

CHORUS 1:
e |-----------------------------|----------------------------|
B |-----------------------------|----------------------------|
G |-----------------------------|----------------------------|
D |--0--3--5--6--5--3--5--3-----|--0--3--5--6--5--3--5--3----|
A |--0--3--5--6--5--3--5--3-----|--0--3--5--6--5--3--5--3----|
E |--0--3--5--6--5--3--5--3-----|--0--3--5--6--5--3--5--3----|

e |-----------------------------|----------------------------|
B |-----------------------------|----------------------------|
G |-----------------------------|----------------------------|
D |--0--3--5--6--5--3--5--3-----|--0--3--5--6--5--3--5--3----|
A |--0--3--5--6--5--3--5--3-----|--0--3--5--6--5--3--5--3----|
E |--0--3--5--6--5--3--5--3-----|--0--3--5--6--5--3--5--3----|

e |-----------------------------|----------------------------|
B |-----------------------------|----------------------------|
G |-----------------------------|----------------------------|
D |--0--3--5--6--5--3--5--3-----|--0--3--5--6--5--3--5--3----|
A |--0--3--5--6--5--3--5--3-----|--0--3--5--6--5--3--5--3----|
E |--0--3--5--6--5--3--5--3-----|--0--3--5--6--5--3--5--3----|

e |-----------------------------|----------------------------|
B |-----------------------------|----------------------------|
G |-----------------------------|----------------------------|
D |--0--3--5--6--5--3--5--3-----|--0--3--5--6--5--3--5--3----|
A |--0--3--5--6--5--3--5--3-----|--0--3--5--6--5--3--5--3----|
E |--0--3--5--6--5--3--5--3-----|--0--3--5--6--5--3--5--3----|

(no lyrics)
e |-----------------------------|----------------------------|
B |-----------------------------|----------------------------|
G |-----------------------------|----------------------------|
D |--0--3--5--6--5--3--5--3-----|--0--3--5--6--5--3--5--3----|
A |--0--3--5--6--5--3--5--3-----|--0--3--5--6--5--3--5--3----|
E |--0--3--5--6--5--3--5--3-----|--0--3--5--6--5--3--5--3----|

e |-----------------------------|----------------------------|
B |-----------------------------|----------------------------|
G |-----------------------------|----------------------------|
D |--0--3--5--6--5--3--5--3-----|--0--3--5--6--5--3--5--3----|
A |--0--3--5--6--5--3--5--3-----|--0--3--5--6--5--3--5--3----|
E |--0--3--5--6--5--3--5--3-----|--0--3--5--6--5--3--5--3----|


verse 2:
e |-------------------------------|--------------------------------|
B |-------------------------------|--------------------------------|
G |-------------------------------|--------------------------------|
D |--0-2-----2---------2------2---|--0-2-----2---------2------2----|
A |--0-2-----2---------2------2---|--0-2-----2---------2------2----|
E |--0-2-2-2-2--2-2--2-2--2-2-2---|--0-2-2-2-2--2-2--2-2--2-2-2----|

e |-------------------------------|--------------------------------|
B |-------------------------------|--------------------------------|
G |-------------------------------|--------------------------------|
D |--0-2-----2---------2------2---|--0-2-----2---------2------2----|
A |--0-2-----2---------2------2---|--0-2-----2---------2------2----|
E |--0-2-2-2-2--2-2--2-2--2-2-2---|--0-2-2-2-2--2-2--2-2--2-2-2----|

e |-------------------------------|--------------------------------|
B |-------------------------------|--------------------------------|
G |-------------------------------|--------------------------------|
D |--0-2-----2---------2------2---|--0-2-----2---------2------2----|
A |--0-2-----2---------2------2---|--0-2-----2---------2------2----|
E |--0-2-2-2-2--2-2--2-2--2-2-2---|--0-2-2-2-2--2-2--2-2--2-2-2----|
[ Tab from: http://www.guitartabs.cc/tabs/s/skid_row/subhuman_race_tab_ver_2.html ]
e |-------------------------------|--------------------------------|
B |-------------------------------|--------------------------------|
G |-------------------------------|--------------------------------|
D |--0-2-----2---------2------2---|--0-2-----2---------2------2----|
A |--0-2-----2---------2------2---|--0-2-----2---------2------2----|
E |--0-2-2-2-2--2-2--2-2--2-2-2---|--0-2-2-2-2--2-2--2-2--2-2-2----|

PRE 2:
e |-------------------------------|-------------------------------|
B |-------------------------------|-------------------------------|
G |-------------------------------|-------------------------------|
D |--3-3-3-3--0-0-0---------------|--3-3-3-3--0-0-0---------------|
A |--3-3-3-3--0-0-0--3h5--3h5-----|--3-3-3-3--0-0-0--3h5--3h5-----|
E |--3-3-3-3--0-0-0---------------|--3-3-3-3--0-0-0---------------|

e |-------------------------------|-------------------------------|
B |-------------------------------|-------------------------------|
G |-------------------------------|-------------------------------|
D |--3-3-3-3--0-0-0--3h5--3h5-----|--3-3-3-3--3--5----------------|
A |--3-3-3-3--0-0-0--3h5--3h5-----|--3-3-3-3--3--5----------------|
E |--3-3-3-3--0-0-0--3h5--3h5-----|--3-3-3-3--3--5----------------|

CHORUS 2:
e |-----------------------------|----------------------------|
B |-----------------------------|----------------------------|
G |-----------------------------|----------------------------|
D |--0--3--5--6--5--3--5--3-----|--0--3--5--6--5--3--5--3----|
A |--0--3--5--6--5--3--5--3-----|--0--3--5--6--5--3--5--3----|
E |--0--3--5--6--5--3--5--3-----|--0--3--5--6--5--3--5--3----|

e |-----------------------------|----------------------------|
B |-----------------------------|----------------------------|
G |-----------------------------|----------------------------|
D |--0--3--5--6--5--3--5--3-----|--0--3--5--6--5--3--5--3----|
A |--0--3--5--6--5--3--5--3-----|--0--3--5--6--5--3--5--3----|
E |--0--3--5--6--5--3--5--3-----|--0--3--5--6--5--3--5--3----|

e |-----------------------------|----------------------------|
B |-----------------------------|----------------------------|
G |-----------------------------|----------------------------|
D |--0--3--5--6--5--3--5--3-----|--0--3--5--6--5--3--5--3----|
A |--0--3--5--6--5--3--5--3-----|--0--3--5--6--5--3--5--3----|
E |--0--3--5--6--5--3--5--3-----|--0--3--5--6--5--3--5--3----|

e |-----------------------------|----------------------------|
B |-----------------------------|----------------------------|
G |-----------------------------|----------------------------|
D |--0--3--5--6--5--3--5--3-----|--0--3--5--6--5--3--5--3----|
A |--0--3--5--6--5--3--5--3-----|--0--3--5--6--5--3--5--3----|
E |--0--3--5--6--5--3--5--3-----|--0--3--5--6--5--3--5--3----|


break:
e |-------------------------------|-----------------------------|
B |-------------------------------|-----------------------------|
G |-------------------------------|-----------------------------|
D |-0--6--0-3-5---3-0--6---0-3-5--|-3-0-6---3-5--3-0-6---0-3-5--|
A |-0--6--0-3-5---3-0--6---0-3-5--|-3-0-6---3-5--3-0-6---0-3-5--|
E |-0--6--0-3-5---3-0--6---0-3-5--|-3-0-6---3-5--3-0-6---0-3-5--|

e |-----------------------------|----------------------------|
B |-----------------------------|----------------------------|
G |-----------------------------|----------------------------|
D |-3-0-6--3-5---3-0-6---0-3-5--|-3-0-6--3-5---3-0-6---0-3-5-|
A |-3-0-6--3-5---3-0-6---0-3-5--|-3-0-6--3-5---3-0-6---0-3-5-|
E |-3-0-6--3-5---3-0-6---0-3-5--|-3-0-6--3-5---3-0-6---0-3-5-|


solo:
(goes over this rhythm)

e |-----------------------------|----------------------------|
B |-----------------------------|----------------------------|
G |-----------------------------|----------------------------|
D |--0--3--5--6--5--3--5--3-----|--0--3--5--6--5--3--5--3----|
A |--0--3--5--6--5--3--5--3-----|--0--3--5--6--5--3--5--3----|
E |--0--3--5--6--5--3--5--3-----|--0--3--5--6--5--3--5--3----|

e |-----------------------------|----------------------------|
B |-----------------------------|----------------------------|
G |-----------------------------|----------------------------|
D |--0--3--5--6--5--3--5--3-----|--0--3--5--6--5--3--x-x-x-x-|
A |--0--3--5--6--5--3--5--3-----|--0--3--5--6--5--3--x-x-x-x-|
E |--0--3--5--6--5--3--5--3-----|--0--3--5--6--5--3--x-x-x-x-|

e |-----------------------------|----------------------------|
B |-----------------------------|----------------------------|
G |-----------------------------|----------------------------|
D |--0--3--5--6--5--3--5--3-----|--0--3--5--6--5--3--5--3----|
A |--0--3--5--6--5--3--5--3-----|--0--3--5--6--5--3--5--3----|
E |--0--3--5--6--5--3--5--3-----|--0--3--5--6--5--3--5--3----|

e |-----------------------------|----------------------------|
B |-----------------------------|----------------------------|
G |-----------------------------|----------------------------|
D |--0--3--5--6--5--3--5--3-----|--0--3--5--6--5--3--x-x-x-x-|
A |--0--3--5--6--5--3--5--3-----|--0--3--5--6--5--3--x-x-x-x-|
E |--0--3--5--6--5--3--5--3-----|--0--3--5--6--5--3--x-x-x-x-|


chorus 3:

e |-----------------------------|----------------------------|
B |-----------------------------|----------------------------|
G |-----------------------------|----------------------------|
D |--0--3--5--6--5--3--5--3-----|--0--3--5--6--5--3--5--3----|
A |--0--3--5--6--5--3--5--3-----|--0--3--5--6--5--3--5--3----|
E |--0--3--5--6--5--3--5--3-----|--0--3--5--6--5--3--5--3----|

e |-----------------------------|----------------------------|
B |-----------------------------|----------------------------|
G |-----------------------------|----------------------------|
D |--0--3--5--6--5--3--5--3-----|--0--3--5--6--5--3--5--3----|
A |--0--3--5--6--5--3--5--3-----|--0--3--5--6--5--3--5--3----|
E |--0--3--5--6--5--3--5--3-----|--0--3--5--6--5--3--5--3----|

e |-----------------------------|----------------------------|
B |-----------------------------|----------------------------|
G |-----------------------------|----------------------------|
D |--0--3--5--6--5--3--5--3-----|--0--3--5--6--5--3--5--3----|
A |--0--3--5--6--5--3--5--3-----|--0--3--5--6--5--3--5--3----|
E |--0--3--5--6--5--3--5--3-----|--0--3--5--6--5--3--5--3----|

e |-----------------------------|----------------------------|
B |-----------------------------|----------------------------|
G |-----------------------------|----------------------------|
D |--0--3--5--6--5--3--5--3-----|--0--3--5--6--5--3--5--3----|
A |--0--3--5--6--5--3--5--3-----|--0--3--5--6--5--3--5--3----|
E |--0--3--5--6--5--3--5--3-----|--0--3--5--6--5--3--5--3----|

outro:
e |-------------------------------|--------------------------------|
B |-------------------------------|--------------------------------|
G |--7----------------------------|--------------------------------|
D |--7----------------------------|--0-----------------------------|
A |--5----------------------------|--0-----------------------------|
E |--0----------------------------|--0-----------------------------|


e |-------------------------------|--------------------------------|
B |-------------------------------|--------------------------------|
G |-------------------------------|-------------------------10\----|
D |--0----------------------------|--0-0--5-6-5-3-5-3-------10\----|
A |--0----------------------------|--0-0--5-6-5-3-5-3-------8\-----|
E |--0----------------------------|--0-0--5-6-5-3-5-3-------0------|


*********************************************************************


Lyrics:

Jesus knows my story
he knows the position that I'm in
A hooker knows the feeling
to get fucked the way I've seen

Turn my
Insides out
Your mouth
Drank my water

CHORUS:
You look at me like I'm subhuman
You talk to me like I'm subhuman
You're treating me like I'm subhuman
You're jumping into the subhuman race

Brothers hear my story
But don't you take no pity out on me
A soldier know the feeling
To get pushed out in  a field

Taking
Liberties
Burned
By your dictation

*********************************************************************

Simon V.
E-mail: j5816632@redgum.bendigo.latrobe.edu.au

*********************************************************************
Comments