Skid Row - Psycho Love Chords & Tabs

 

Psycho Love Chords & Tabs

Skid Row Chords & Tabs

Version: 1 Type: Tab 0 ratings
1 star 2 stars 3 stars 4 stars 5 stars
comments

Psycho Love Tab

Skid Row
Psycho Love

Intro/chorus
|------------------------------|-------------------------------|
|------------------------------|-------------------------------|
|------------------------------|-------------------------------|
|------------------------------|-------------------------------| x3
|----------7---7-10-10-9-7--9--|----------7-X-3--2----2h3p2h3--|
|--2-2-2-2-5---5--8--8-7-5--7--|--2-2-2-2-5-X-1--0-0-----------|

|------------------------------|-------------------|
|------------------------------|-------------------|
|------------------------------|-------------------|
|------------------------------|-------------------|
|----------7---7-10-10-9-7--9--|----------7---4-4--|
|--2-2-2-2-5---5--8--8-7-5--7--|--2-2-2-2-5---2-2--|
verse
|-------------------|-------------------|
|-------------------|-------------------|
|-------------------|-------------------|
|-------------------|-------------------| x2
|--9-9-9-9-9-9-9-9--|--9-9-9-9-9-9-9-7--|
|--7-7-7-7-7-7-7-7--|--7-7-7-7-7-7-7-5--|

|---------------------------|--------------------------|
|---------------------------|--------------------------|
|---------------------------|--------------------------|
|---------------------------|--------------------------| x2
|--11-11-11-11-11-11-11-11--|--11-11-11-11-11-11-11-9--|
|---9--9--9--9--9--9--9--9--|--9--9--9--9--9--9--9--7--|

|---------------------|
|---------------------|
|---------------------|
|---------------------|
|--10-10--10--10--10--|
|---8--8---8---8---8--|

chorus


Here is the slow part

Guitar 1
|------------------------------------------------------------------------------------------|
|------------------------------------------------------------------------------------------|
|--------4---------4------------4----------4------------4--------4-----------4--------4----|
|-----4----4----4------------4----4----4------------4----4---4-----------4---4----4--------|
|--2---------2-------2---------------2-------2-------------2-------2-------------2------2--|
|------------------------------------------------------------------------------------------|
[ Tab from: http://www.guitartabs.cc/tabs/s/skid_row/psycho_love_tab.html ]
Guitar 2
|------------------------------------------------------------------------------------------|
|------------------------------------------------------------------------------------------|
|------------------------------------------------------------------------------------------|
|------------------------------------------------------------------------------------------|
|--2---------0-------------------------------------------------------------------0------2--|
|--------------------3---------------2-------0-------------3-------2-----------------------|
					     distortion
|-----------------------------------------------|-------------------------------------|
|-----------------------------------------------|-------------------------------------|
|-------4--------4----------------4---------4---|-------------------------------------|
|----4----4---4----------------4----4----4------|-------------------------------------|
|--2--------0-----------------------------------|-2----2-2-2-2-2-2-2-4-4-4-4-4-4-4-4--|
|--------------------3-------2----------0-------|-0----0-0-0-0-0-0-0-2-2-2-2-2-2-2-2--|

solo rhythm and after
|--------------------------------|--------------------------------|
|--------------------------------|--------------------------------|
|--------------------------------|--------------------------------|
|--------------------------------|--------------------------------|
|--4-6-6-6-6---6-6-4-6-6-6-9--9--|--4-6-6-6-6---6-6-4-6-6-6-4--4--|
|--2-4-4-4-4---4-4-2-4-4-4-7--7--|--2-4-4-4-4---4-4-2-4-4-4-2--2--|

ending
|--------------------------------|-------------------------------------|
|--------------------------------|-------------------------------------|
|--------------------------------|-------------------------------------|
|--------------------------------|-------------------------------------|
|----------7---7-10---10-9--7-9--|----------10---10-13---13-12--10-12--|
|--2-2-2-2-5---5--8----8-7--5-7--|--5-5-5-5--8----8-11---11-10---8-10--|



|-------------------------------------|--------------------|
|-------------------------------------|--------------------|
|-------------------------------------|--------------------|
|-------------------------------------|--------------------|
|----------12---12-15---15-14--12-14--|----------6---4-4\--|
|--7-7-7-7-10---10-13---13-12--10-12--|--2-2-2-2-4---2-2\--|

intro
verse
chorus
verse
chorus
slow part
solo
chorus
ending

sadly I don't know the solo but I'll try to get it later
Comments