Skid Row - Eileen Chords & Tabs

 

Eileen Chords & Tabs

Skid Row Chords & Tabs

Version: 1 Type: Tab 0 ratings
1 star 2 stars 3 stars 4 stars 5 stars
comments

Eileen Tab

#----------------------------------PLEASE NOTE---------------------------------#
#This file is the author's own work and represents their interpretation of the #
#song. You may only use this file for private study, scholarship, or research. #
#------------------------------------------------------------------------------#


Date: Wed, 07 Aug 96 14:18:47 -0700
From: Simon Virgona 



"EILEEN" - SKID ROW

(FROM THE ALBUM: "SUBHUMAN RACE")
(Affuso, Bach, Bolan, Snake)

NOTE: I'm a rhythm player so this is basically just the rhythm parts of 
the song. It's not 100% correct, but the basics are here - so just
listen to the song for the correct strumming and rhythm.
Enjoy!

Simon V.
(j5816632@redgum.bendigo.latrobe.edu.au)


INTRO:
E-|----------------------------------|------------------------------------|
B-|----------------------------------|------------------------------------|
G-|-------0------2/\------0------0---|---------------2/\------0-------0---|
D-|-----2------3---------------------|------2------3----------------------|
A-|---2------1----------3-------5--5-|----2------1----------3-------5-----|
E-|-0-----------------1------/3------|--0-----------------1------/3-----5-|


E-|----------------------------------|------------------------------------|
B-|----------------------------------|------------------------------------|
G-|-------0------2/\------0------0---|---------------2/\------0-------0---|
D-|-----2------3---------------------|------2------3----------------------|
A-|---2------1----------3-------5--5-|----2------1----------3-------5-----|
E-|-0-----------------1------/3------|--0-----------------1------/3-----5-|


E-|----0-------------------|----0---------------------|
B-|------0-----------------|------0-------------------|
G-|---------2/\2p0----0----|----------2/\2p0---5------|
D-|--2--------------3---5--|--2----------------5--5---|
A-|--2--------------3---5--|--2----------------3--5---|
E-|--0--------------1---3--|--0-------------------3---|

E-|----0-------------------|----0---------------------|
B-|------0-----------------|------0-------------------|
G-|---------2/\2p0----0----|----------2/\2p0---5------|
D-|--2--------------3---5--|--2----------------5--5---|
A-|--2--------------3---5--|--2----------------3--5---|
E-|--0--------------1---3--|--0-------------------3---|


VERSE 1:

    There  are things we cannot see 
E-|----------------------------------|------------------------------------|
B-|----------------------------------|------------------------------------|
G-|-------0------2/\------0------0---|---------------2/\------0-------0---|
D-|-----2------3---------------------|------2------3----------------------|
A-|---2------1----------3-------5--5-|----2------1----------3-------5-----|
E-|-0-----------------1------/3------|--0-----------------1------/3-------|

                                        that dance with her at night
E-|----------------------------------|------------------------------------|
B-|----------------------------------|------------------------------------|
G-|-------0------2/\------0------0---|---------------2/\------0-------0---|
D-|-----2------3---------------------|------2------3----------------------|
A-|---2------1----------3-------5--5-|----2------1----------3-------5-----|
E-|-0-----------------1------/3------|--0-----------------1------/3-------|


CHORUS 1:
     Eileen... is calling meto sit awhile and talk  to trees
E-|----0-------------------|----0---------------------|
B-|------0-----------------|------0-------------------|
G-|---------2/\2p0----0----|----------2/\2p0---5------|
D-|--2--------------3---5--|--2----------------5--5---|
A-|--2--------------3---5--|--2----------------3--5---|
E-|--0--------------1---3--|--0-------------------3---|

     Eileen can't you see   the songs you sing are scaring me
E-|----0-------------------|----2---------------------|
B-|------0-----------------|------2-------------------|
G-|---------2/\2p0---------|----------2/\2p0---5------|
D-|--2--------------3---5--|--2----------------5--5---|
A-|--2--------------3---5--|--2----------------3--5---|
E-|--0--------------1---3--|--0-------------------3---|

     Eileen...Eileen...
E-|----0---------------0-----------|---0--------------0----------|
B-|------0----------------0--------|-----0--------------0--------|
G-|--------------------------------|-----------------------------|
D-|--2------3--3----2--------3--3--|-2------3--3----2------3--3--|
A-|--2------3--3----2--------3--3--|-2------3--3----2------3--3--|
E-|--0------1--1----0--------1--1--|-0------1--1----0------1--1--|



E-|----------------------------------|------------------------------------|
B-|----------------------------------|------------------------------------|
G-|-------0------2/\------0------0---|---------------2/\------0-------0---|
D-|-----2------3---------------------|------2------3----------------------|
A-|---2------1----------3-------5--5-|----2------1----------3-------5-----|
E-|-0-----------------1------/3------|--0-----------------1------/3-------|



VERSE 2:
    She's  romancing with the moon       
E-|----------------------------------|------------------------------------|
B-|----------------------------------|------------------------------------|
G-|-------0------2/\------0------0---|---------------2/\------0-------0---|
D-|-----2------3---------------------|------2------3----------------------|
A-|---2------1----------3-------5--5-|----2------1----------3-------5-----|
E-|-0-----------------1------/3------|--0-----------------1------/3-------|

                                       it's something we all know
E-|----------------------------------|------------------------------------|
B-|----------------------------------|------------------------------------|
G-|-------0------2/\------0------0---|---------------2/\------0-------0---|
D-|-----2------3---------------------|------2------3----------------------|
A-|---2------1----------3-------5--5-|----2------1----------3-------5-----|
E-|-0-----------------1------/3------|--0-----------------1------/3-----5-|


CHORUS 2:
     Eileen.. is calling meto sit awhile and talk  to trees
E-|----0-------------------|----0---------------------|
B-|------0-----------------|------0-------------------|
G-|---------2/\2p0----0----|----------2/\2p0---5------|
D-|--2--------------3---5--|--2----------------5--5---|
A-|--2--------------3---5--|--2----------------3--5---|
E-|--0--------------1---3--|--0-------------------3---|

     Eileen can't you see   the songs you sing are scaring me
E-|----0-------------------|----2---------------------|
B-|------0-----------------|------2-------------------|
G-|---------2/\2p0---------|----------2/\2p0---5------|
D-|--2--------------3---5--|--2----------------5--5---|
A-|--2--------------3---5--|--2----------------3--5---|
E-|--0--------------1---3--|--0-------------------3---|

Eileen...Eileen...
E-|----0---------------0-----------|---0--------------0----------|
B-|------0----------------0--------|-----0--------------0--------|
G-|--------------------------------|-----------------------------|
D-|--2------3--3----2--------3--3--|-2------3--3----2------3--3--|
A-|--2------3--3----2--------3--3--|-2------3--3----2------3--3--|
E-|--0------1--1----0--------1--1--|-0------1--1----0------1--1--|


E-|---------------------|---------------------|
B-|---------------------|---------------------|
G-|---------------------|---------------------|
D-|--2----------3---5---|--2----------3---5---|
A-|--2----------3---5---|--2----------3---5---|
E-|--0-0--0-0---1---3---|--0-0--0-0---1---3---|

E-|---------------------|---------------------|
B-|---------------------|---------------------|
G-|---------------------|---------------------|
D-|--2----------3---5---|--2----------3---5---|
A-|--2----------3---5---|--2----------3---5---|
E-|--0-0--0-0---1---3---|--0-0--0-0---1---3---|


INTERLUDE:
Eileen....Oooh...
E-|-----------------------------|-------------------------------|
B-|-----------------------------|-------------------------------|
G-|---------3-------------3-----|----------2-------------2------|
D-|-----3-----3-------3-----3---|------2-----2-------2-----2----|
A-|-------3-----3-------3-----3-|--------2-----2-------2-----2--|
E-|--1-------------1------------|---0--------------0------------|

Oooh...Oooh...Oh...
E-|-----------------------------|------------------------------------|
B-|-----------------------------|------------------------------------|
G-|---------3-------------3-----|----------2---------------5---------|
D-|-----3-----3-------3-----3---|------2-----2-------2-----5--5-5-5--|
A-|-------3-----3-------3-----3-|--------2-----2-------2---3--5-5-5--|
E-|--1-------------1------------|---0--------------0----------3-3-3--|

SOLO (goes over this):
E-|----0-------------------|----0---------------------|
B-|------0-----------------|------0-------------------|
G-|---------2/\2p0----0----|----------2/\2p0---5------|
D-|--2--------------3---5--|--2----------------5--5---|
A-|--2--------------3---5--|--2----------------3--5---|
E-|--0--------------1---3--|--0-------------------3---|
[ Tab from: http://www.guitartabs.cc/tabs/s/skid_row/eileen_tab.html ]
E-|----0-------------------|----2---------------------|
B-|------0-----------------|------2-------------------|
G-|---------2/\2p0----0----|----------2/\2p0---5------|
D-|--2--------------3---5--|--2----------------5--5---|
A-|--2--------------3---5--|--2----------------3--5---|
E-|--0--------------1---3--|--0-------------------3---|


VERSE 3:
     There are things we cannot see
E-|----------------------------------|------------------------------------|
B-|----------------------------------|------------------------------------|
G-|-------0------2/\------0------0---|---------------2/\------0-------0---|
D-|-----2------3---------------------|------2------3----------------------|
A-|---2------1----------3-------5--5-|----2------1----------3-------5-----|
E-|-0-----------------1------/3------|--0-----------------1------/3-------|

                                        something we all know
E-|----------------------------------|------------------------------------|
B-|----------------------------------|------------------------------------|
G-|-------0------2/\------0------0---|---------------2/\------0-------0---|
D-|-----2------3---------------------|------2------3----------------------|
A-|---2------1----------3-------5--5-|----2------1----------3-------5-----|
E-|-0-----------------1------/3------|--0-----------------1------/3-----5-|




CHORUS 3:
     Eileen...
E-|----0-------------------|----0---------------------|
B-|------0-----------------|------0-------------------|
G-|---------2/\2p0----0----|----------2/\2p0---5------|
D-|--2--------------3---5--|--2----------------5--5---|
A-|--2--------------3---5--|--2----------------3--5---|
E-|--0--------------1---3--|--0-------------------3---|

     Eileen can't you see  
E-|----0-------------------|----2---------------------|
B-|------0-----------------|------2-------------------|
G-|---------2/\2p0---------|----------2/\2p0---5------|
D-|--2--------------3---5--|--2----------------5--5---|
A-|--2--------------3---5--|--2----------------3--5---|
E-|--0--------------1---3--|--0-------------------3---|

     Eileen...
E-|----0-------------------|----0---------------------|
B-|------0-----------------|------0-------------------|
G-|---------2/\2p0----0----|----------2/\2p0---5------|
D-|--2--------------3---5--|--2----------------5--5---|
A-|--2--------------3---5--|--2----------------3--5---|
E-|--0--------------1---3--|--0-------------------3---|

     Eileen can't you see  
E-|----0-------------------|----2---------------------|
B-|------0-----------------|------2-------------------|
G-|---------2/\2p0---------|----------2/\2p0---5------|
D-|--2--------------3---5--|--2----------------5--5---|
A-|--2--------------3---5--|--2----------------3--5---|
E-|--0--------------1---3--|--0-------------------3---|

Eileen...Eileen....
E-|----0---------------0-----------|---0--------------0----------|
B-|------0----------------0--------|-----0--------------0--------|
G-|--------------------------------|-----------------------------|
D-|--2------3--3----2--------3--3--|-2------3--3----2------3--3--|
A-|--2------3--3----2--------3--3--|-2------3--3----2------3--3--|
E-|--0------1--1----0--------1--1--|-0------1--1----0------1--1--|


E-|---------------------|---------------------|
B-|---------------------|---------------------|
G-|---------------------|---------------------|
D-|--2----------3---5---|--2----------3---5---|
A-|--2----------3---5---|--2----------3---5---|
E-|--0-0--0-0---1---3---|--0-0--0-0---1---3---|

E-|---------------------|---------------------|-----------------|
B-|---------------------|---------------------|-----------------|
G-|---------------------|---------------------|-----------------|
D-|--2----------3---5---|--2----------3---5---|--2--------------|
A-|--2----------3---5---|--2----------3---5---|--2--------------|
E-|--0-0--0-0---1---3---|--0-0--0-0---1---3---|--0--------------|

 
BRIDGE:
E-|---------------------------------|-----------------------------|
B-|---------------------------------|-----------------------------|
G-|---------------------------------|-----------------------------|
D-|--2----------2----------3-3-3/5--|--2----------2----------3-3--|
A-|--2----------2----------3-3-3/5--|--2----------2----------3-3--|
E-|--0-0-0-0-0--0-0-0-0-0--1-1-1/3--|--0-0-0-0-0--0-0-0-0-0--1-1--|

E-|---------------------------------|-----------------------------|
B-|---------------------------------|-----------------------------|
G-|---------------------------------|-----------------------------|
D-|--2----------2----------3-3-3/5--|--2----------2----------3-3--|
A-|--2----------2----------3-3-3/5--|--2----------2----------3-3--|
E-|--0-0-0-0-0--0-0-0-0-0--1-1-1/3--|--0-0-0-0-0--0-0-0-0-0--1-1--|

I know...  
E-|------------------------------------|---------------------------------|
B-|------------------------------------|---------------------------------|
G-|------------------------------------|---------------------------------|
D-|-0h2----------0h2----------3-3-3/5--|--0h2----------0h2----------3-3--|
A-|-0h2----------0h2----------3-3-3/5--|--0h2----------0h2----------3-3--|
E-|-----0-0-0-0------0-0-0-0--1-1-1/3--|------0-0-0-0-----0-0-0-0---1-1--|


E-|------------------------------------|---------------------------------|
B-|------------------------------------|---------------------------------|
G-|------------------------------------|---------------------------------|
D-|-0h2----------0h2----------3-3-3/5--|--0h2----------0h2----------3-3--|
A-|-0h2----------0h2----------3-3-3/5--|--0h2----------0h2----------3-3--|
E-|-----0-0-0-0------0-0-0-0--1-1-1/3--|------0-0-0-0-----0-0-0-0---1-1--|


E-|------------------------------------|---------------------------------|
B-|------------------------------------|---------------------------------|
G-|------------------------------------|---------------------------------|
D-|-0h2----------0h2----------3-3-3/5--|--0h2----------0h2----------3-3--|
A-|-0h2----------0h2----------3-3-3/5--|--0h2----------0h2----------3-3--|
E-|-----0-0-0-0------0-0-0-0--1-1-1/3--|------0-0-0-0-----0-0-0-0---1-1--|


E-|------------------------------------|---------------------------------|
B-|------------------------------------|---------------------------------|
G-|------------------------------------|---------------------------------|
D-|-0h2----------0h2----------3-3-3/5--|--0h2----------0h2----------3-3--|
A-|-0h2----------0h2----------3-3-3/5--|--0h2----------0h2----------3-3--|
E-|-----0-0-0-0------0-0-0-0--1-1-1/3--|------0-0-0-0-----0-0-0-0---1-1--|


BASS RIFF 
G-|---------------------------------|-----------------------------|
D-|--------2---------2-----3--------|--------2---------2-----3----|
A-|------2---------2-----3----------|------2---------2-----3------|
E-|--0-0-----0---0-----1------------|--0-0-----0---0-----1--------|


I know...   
E-|------------------------------------|---------------------------------|
B-|------------------------------------|---------------------------------|
G-|------------------------------------|---------------------------------|
D-|-0h2----------0h2----------3-3-3/5--|--0h2----------0h2----------3-3--|
A-|-0h2----------0h2----------3-3-3/5--|--0h2----------0h2----------3-3--|
E-|-----0-0-0-0------0-0-0-0--1-1-1/3--|------0-0-0-0-----0-0-0-0---1-1--|

what she knows...
E-|------------------------------------|---------------------------------|
B-|------------------------------------|---------------------------------|
G-|------------------------------------|---------------------------------|
D-|-0h2----------0h2----------3-3-3/5--|--0h2----------0h2----------3-3--|
A-|-0h2----------0h2----------3-3-3/5--|--0h2----------0h2----------3-3--|
E-|-----0-0-0-0------0-0-0-0--1-1-1/3--|------0-0-0-0-----0-0-0-0---1-1--|

I know....
E-|------------------------------------|---------------------------------|
B-|------------------------------------|---------------------------------|
G-|------------------------------------|---------------------------------|
D-|-0h2----------0h2----------3-3-3/5--|--0h2----------0h2----------3-3--|
A-|-0h2----------0h2----------3-3-3/5--|--0h2----------0h2----------3-3--|
E-|-----0-0-0-0------0-0-0-0--1-1-1/3--|------0-0-0-0-----0-0-0-0---1-1--|

what she knows...
E-|------------------------------------|---------------------------------|
B-|------------------------------------|---------------------------------|
G-|------------------------------------|---------------------------------|
D-|-0h2----------0h2----------3-3-3/5--|--0h2----------0h2----------3-3--|
A-|-0h2----------0h2----------3-3-3/5--|--0h2----------0h2----------3-3--|
E-|-----0-0-0-0------0-0-0-0--1-1-1/3--|------0-0-0-0-----0-0-0-0---1-1--|

(START TO FADE)
E-|------------------------------------|---------------------------------|
B-|------------------------------------|---------------------------------|
G-|------------------------------------|---------------------------------|
D-|-0h2----------0h2----------3-3-3/5--|--0h2----------0h2----------3-3--|
A-|-0h2----------0h2----------3-3-3/5--|--0h2----------0h2----------3-3--|
E-|-----0-0-0-0------0-0-0-0--1-1-1/3--|------0-0-0-0-----0-0-0-0---1-1--|

E-|------------------------------------|---------------------------------|
B-|------------------------------------|---------------------------------|
G-|------------------------------------|---------------------------------|
D-|-0h2----------0h2----------3-3-3/5--|--0h2----------0h2----------3-3--|
A-|-0h2----------0h2----------3-3-3/5--|--0h2----------0h2----------3-3--|
E-|-----0-0-0-0------0-0-0-0--1-1-1/3--|------0-0-0-0-----0-0-0-0---1-1--|


..AND FADE OUT.


Simon V.

Comments, abuse, or just a chat:  j5816632@redgum.bendigo.latrobe.edu.au
Comments