Skid Row - Bonehead Chords & Tabs

 

Bonehead Chords & Tabs

Skid Row Chords & Tabs

Version: 1 Type: Tab 0 ratings
1 star 2 stars 3 stars 4 stars 5 stars
comments

Bonehead Tab

#----------------------------------PLEASE NOTE---------------------------------#
#This file is the author's own work and represents their interpretation of the #
#song. You may only use this file for private study, scholarship, or research. #
#------------------------------------------------------------------------------#
#

BONEHEAD - SKID ROW 
(Bolan, Snake)

(From the album: sUBHUMAN rACE)

intro riff 1 [heavy palm mute][light mute]
e |----------------------------------|----------------------------------|
B |----------------------------------|----------------------------------|
G |----------------------------------|----------------------------------|
D |-8-8-8-8---------5-5-5-5-7-7-7-7--|-8-8-8-8---------5-5-5-5-7-7-7-7--|
A |-6-6-6-6-7-7-7-7-3-3-3-3-5-5-5-5--|-6-6-6-6-7-7-7-7-3-3-3-3-5-5-5-5--|
E |---------5-5-5-5------------------|---------5-5-5-5------------------|

with drums, 
e |----------------------------------|----------------------------------|
B |----------------------------------|----------------------------------|
G |----------------------------------|----------------------------------|
D |-8-8-8-8---------5-5-5-5-7-7-7-7--|-8-8-8-8---------5-5-5-5-7-7-7-7--|
A |-6-6-6-6-7-7-7-7-3-3-3-3-5-5-5-5--|-6-6-6-6-7-7-7-7-3-3-3-3-5-5-5-5--|
E |---------5-5-5-5------------------|---------5-5-5-5------------------|

e |----------------------------------|----------------------------------|
B |----------------------------------|----------------------------------|
G |----------------------------------|----------------------------------|
D |-8-8-8-8---------5-5-5-5-7-7-7-7--|-8-8-8-8---------5-5-5-5-7-7------|
A |-6-6-6-6-7-7-7-7-3-3-3-3-5-5-5-5--|-6-6-6-6-7-7-7-7-3-3-3-3-5-5------|
E |---------5-5-5-5------------------|---------5-5-5-5------------------|



intro riff 2
e |------------------------------|------------------------------|
B |------------------------------|------------------------------|
G |------------------------------|------------------------------|
D |-------------5-------5-5--2---|-------------5-------5-5--2---|
A |-------------5-------5-5--2---|-------------5-------5-5--2---|
E |--3h4h5\--0--3p0--0--3-3--0---|--3h4h5\--0--3p0--0--3-3--0---|

e |------------------------------|--------------------------------|
B |------------------------------|--------------------------------|
G |------------------------------|--------------------------------|
D |-------------5-------5-5--2---|-------------5-------5----4-3-2-|
A |-------------5-------5-5--2---|-------------5-------5----4-3-2-|
E |--3h4h5\--0--3p0--0--3-3--0---|--3h4h5\--0--3p0--0--3----2-1-0-|


verse 1:
e |-------------------------------|-------------------------------|
B |-------------------------------|-------------------------------|
G |-------------------------------|-------------------------------|
D |---------------------4--3--2---|---------------------4--3--2---|
A |---------------------4--3--2---|---------------------4--3--2---|
E |--0-0-0-0-0-0-0-0-0--2--1--0---|--0-0-0-0-0-0-0-0-0--2--1--0---|

e |-------------------------------|-------------------------------|
B |-------------------------------|-------------------------------|
G |-------------------------------|-------------------------------|
D |---------------------4--3--2---|--------------5-------4--3--2--|
A |---------------------4--3--2---|--------------5-------4--3--2--|
E |--0-0-0-0-0-0-0-0-0--2--1--0---|--0-0-0-0-0-0-3p0-0---2--1--0--|


e |-------------------------------|-------------------------------|
B |-------------------------------|-------------------------------|
G |-------------------------------|-------------------------------|
D |---------------------4--3--2---|---------------------4--3--2---|
A |---------------------4--3--2---|---------------------4--3--2---|
E |--0-0-0-0-0-0-0-0-0--2--1--0---|--0-0-0-0-0-0-0-0-0--2--1--0---|

e |-------------------------------|-------------------------------|
B |-------------------------------|-------------------------------|
G |-------------------------------|-------------------------------|
D |---------------------4--3--2---|-------------------------------|
A |---------------------4--3--2---|-------------------------------|
E |--0-0-0-0-0-0-0-0-0--2--1--0---|--0-0-0-0-0-0-0-0-0-0-0-0-0-0--|


e |----------------------------------|----------------------------------|
B |----------------------------------|----------------------------------|
G |----------------------------------|----------------------------------|
D |-8-8-8-8---------5-5-5-5-7-7-7-7--|-8-8-8-8---------5-5-5-5-7-7-7-7--|
A |-6-6-6-6-7-7-7-7-3-3-3-3-5-5-5-5--|-6-6-6-6-7-7-7-7-3-3-3-3-5-5-5-5--|
E |---------5-5-5-5------------------|---------5-5-5-5------------------|

e |----------------------------------|----------------------------------|
B |----------------------------------|----------------------------------|
G |----------------------------------|----------------------------------|
D |-8-8-8-8---------5-5-5-5-7-7-7-7--|-8-8-8-8---------5-5-5---4--3--2--|
A |-6-6-6-6-7-7-7-7-3-3-3-3-5-5-5-5--|-6-6-6-6-7-7-7-7-3-3-3---4--3--2--|
E |---------5-5-5-5------------------|---------5-5-5-5---------2--1--0--|

verse 2:
e |-------------------------------|-------------------------------|
B |-------------------------------|-------------------------------|
G |-------------------------------|-------------------------------|
D |---------------------4--3--2---|---------------------4--3--2---|
A |---------------------4--3--2---|---------------------4--3--2---|
E |--0-0-0-0-0-0-0-0-0--2--1--0---|--0-0-0-0-0-0-0-0-0--2--1--0---|

e |-------------------------------|-------------------------------|
B |-------------------------------|-------------------------------|
G |-------------------------------|-------------------------------|
D |---------------------4--3--2---|--------------5-------4--3--2--|
A |---------------------4--3--2---|--------------5-------4--3--2--|
E |--0-0-0-0-0-0-0-0-0--2--1--0---|--0-0-0-0-0-0-3p0-0---2--1--0--|


e |-------------------------------|-------------------------------|
B |-------------------------------|-------------------------------|
G |-------------------------------|-------------------------------|
D |---------------------4--3--2---|---------------------4--3--2---|
A |---------------------4--3--2---|---------------------4--3--2---|
E |--0-0-0-0-0-0-0-0-0--2--1--0---|--0-0-0-0-0-0-0-0-0--2--1--0---|

e |-------------------------------|-------------------------------|
B |-------------------------------|-------------------------------|
G |-------------------------------|-------------------------------|
D |---------------------4--3--2---|-------------------------------|
A |---------------------4--3--2---|-------------------------------|
E |--0-0-0-0-0-0-0-0-0--2--1--0---|--0-0-0-0-0-0-0-0-0-0-0-0-0-0--|


chorus 1:
e |------------------------------|------------------------------|
B |------------------------------|------------------------------|
G |------------------------------|------------------------------|
D |-------------5-------5-5--2---|-------------5-------5-5--2---|
A |-------------5-------5-5--2---|-------------5-------5-5--2---|
E |--3h4h5\--0--3p0--0--3-3--0---|--3h4h5\--0--3p0--0--3-3--0---|
[ Tab from: http://www.guitartabs.cc/tabs/s/skid_row/bonehead_tab.html ]
e |------------------------------|------------------------------|
B |------------------------------|------------------------------|
G |------------------------------|------------------------------|
D |-------------5-------5-5--2---|--5---------------------------|
A |-------------5-------5-5--2---|--5---------------------------|
E |--3h4h5\--0--3p0--0--3-3--0---|--3---------------------------|

e |------------------------------|------------------------------|
B |------------------------------|------------------------------|
G |------------------------------|------------------------------|
D |-------------5-------5-5--2---|-------------5-------5-5--2---|
A |-------------5-------5-5--2---|-------------5-------5-5--2---|
E |--3h4h5\--0--3p0--0--3-3--0---|--3h4h5\--0--3p0--0--3-3--0---|

e |------------------------------|------------------------------|
B |------------------------------|------------------------------|
G |------------------------------|------------------------------|
D |-------------5-------5-5--2---|--5---------------------------|
A |-------------5-------5-5--2---|--5---------------------------|
E |--3h4h5\--0--3p0--0--3-3--0---|--3---------------------------|



pre solo riff:(w/ palm mute)
e |----------------------------------|----------------------------------|
B |----------------------------------|----------------------------------|
G |----------------------------------|----------------------------------|
D |-9\8-x-x---------4/5-x-x-5/7-x-x--|-9\8-x-x---------4/5-x-x-5/7-x-x--|
A |-7\6-x-x-5/7-x-x-2/3-x-x-3/5-x-x--|-7\6-x-x-5/7-x-x-2/3-x-x-3/5-x-x--|
E |---------3/5-x-x------------------|---------3/5-x-x------------------|

e |----------------------------------|----------------------------------|
B |----------------------------------|----------------------------------|
G |----------------------------------|----------------------------------|
D |-9\8-x-x---------4/5-x-x-5/7-x-x--|-9\8-x-x---------4/5-x-x-5/7-x-x--|
A |-7\6-x-x-5/7-x-x-2/3-x-x-3/5-x-x--|-7\6-x-x-5/7-x-x-2/3-x-x-3/5-x-x--|
E |---------3/5-x-x------------------|---------3/5-x-x------------------|

e |----------------------------------|----------------------------------|
B |----------------------------------|----------------------------------|
G |----------------------------------|----------------------------------|
D |-8-8-8-8---------5-5-5-5-7-7-7-7--|-8-8-8-8---------5-5-5-5-7-7-7-7--|
A |-6-6-6-6-7-7-7-7-3-3-3-3-5-5-5-5--|-6-6-6-6-7-7-7-7-3-3-3-3-5-5-5-5--|
E |---------5-5-5-5------------------|---------5-5-5-5------------------|

e |----------------------------------|----------------------------------|
B |----------------------------------|----------------------------------|
G |----------------------------------|----------------------------------|
D |-8-8-8-8---------5-5-5-5-7-7-7-7--|-8-8-8-8---------5-5-5---4--3--2--|
A |-6-6-6-6-7-7-7-7-3-3-3-3-5-5-5-5--|-6-6-6-6-7-7-7-7-3-3-3---4--3--2--|
E |---------5-5-5-5------------------|---------5-5-5-5---------2--1--0--|


solo over this:
e |-------------------------------|-------------------------------|
B |-------------------------------|-------------------------------|
G |-------------------------------|-------------------------------|
D |---------------------4--3--2---|---------------------4--3--2---|
A |---------------------4--3--2---|---------------------4--3--2---|
E |--0-0-0-0-0-0-0-0-0--2--1--0---|--0-0-0-0-0-0-0-0-0--2--1--0---|

e |-------------------------------|-------------------------------|
B |-------------------------------|-------------------------------|
G |-------------------------------|-------------------------------|
D |---------------------4--3--2---|--------------5-------5-5-5-5--|
A |---------------------4--3--2---|--------------5-------5-5-5-5--|
E |--0-0-0-0-0-0-0-0-0--2--1--0---|--0-0-0-0-0-0-3p0-0---3-3-3-3--|

Last chorus (w/ lead)
e |------------------------------|------------------------------|
B |------------------------------|------------------------------|
G |------------------------------|------------------------------|
D |-------------5-------5-5--2---|-------------5-------5-5--2---|
A |-------------5-------5-5--2---|-------------5-------5-5--2---|
E |--3h4h5\--0--3p0--0--3-3--0---|--3h4h5\--0--3p0--0--3-3--0---|

e |------------------------------|------------------------------|
B |------------------------------|------------------------------|
G |------------------------------|------------------------------|
D |-------------5-------5-5--2---|--5---------------------------|
A |-------------5-------5-5--2---|--5---------------------------|
E |--3h4h5\--0--3p0--0--3-3--0---|--3---------------------------|

e |------------------------------|------------------------------|
B |------------------------------|------------------------------|
G |------------------------------|------------------------------|
D |-------------5-------5-5--2---|-------------5-------5-5--2---|
A |-------------5-------5-5--2---|-------------5-------5-5--2---|
E |--3h4h5\--0--3p0--0--3-3--0---|--3h4h5\--0--3p0--0--3-3--0---|

e |------------------------------|------------------------------|
B |------------------------------|------------------------------|
G |------------------------------|------------------------------|
D |-------------5-------5-5--2---|--5---------------------------|
A |-------------5-------5-5--2---|--5---------------------------|
E |--3h4h5\--0--3p0--0--3-3--0---|--3---------------------------|

outro:(Guitar 1)
e |----------------------------------|----------------------------------|
B |----------------------------------|----------------------------------|
G |---15------------12-----14--------|---15------------12-----14--------|
D |---13-----14-----10-----12--------|---13-----14-----10-----12--------|
A |----------12----------------------|----------12----------------------|
E |----------------------------------|----------------------------------|
  ||
  ||
  |(Guitar 2)|
e |----------------------------------|----------------------------------|
B |----------------------------------|----------------------------------|
G |----------------------------------|----------------------------------|
D |-------8-------------5------7-----|-------8-------------5------7-----|
A |-------6------7------3------5-----|-------6------7------3------5-----|
E |--------------5-------------------|--------------5-------------------|


(Guitar 1)
e |----------------------------------|----------------------------------|
B |----------------------------------|----------------------------------|
G |---15------------12-----14--------|---15------------12---------------|
D |---13-----14-----10-----12--------|---13-----14-----10---------------|
A |----------12----------------------|----------12----------------------|
E |----------------------------------|----------------------------------|
  ||
  ||
  |(Guitar 2)|
e |----------------------------------|----------------------------------|
B |----------------------------------|----------------------------------|
G |----------------------------------|----------------------------------|
D |-------8-------------5------7-----|-------8----------5---------------|
A |-------6------7------3------5-----|-------6------7---3---------------|
E |--------------5-------------------|--------------5-------------------|



*********************************************************************

*********************************************************************

Simon V.
E-mail: j5816632@ironbark.bendigo.latrobe.edu.au

*********************************************************************
Comments