Skid Row - 18 And Life Chords & Tabs

 

18 And Life Chords & Tabs

Skid Row Chords & Tabs

Version: 4 Type: Tab 0 ratings
1 star 2 stars 3 stars 4 stars 5 stars
comments

18 And Life Tab

   
----------------------------------------------------------------------------
			     18 And Life - Skid Row
----------------------------------------------------------------------------
Tabbed by: 80s Hair Metal (Rob)
Email: rsw88@hotmail.com

Tuning: Standard - E,A,D,G,B,E

Everything on here should be correct apart from the intro solo, which may be
a bit off. Hope you like it!!!

Introduction And Verse: (Clean)

e|-------------------------------------------------------------------------|
B|---5--------4----------------5--------4--------------5--------4----------|
G|------6--------4----------------6--------4--------------4--------4-------|
D|------------------4-------------------------4-----------------------4----|
A|4--------4-----------4h6--4--------4--------------4--------4-----------4-|
E|-----------------------------------------------7-------------------------|


e|------0----------0-------------------------------------------------------|
B|------0----------0-------------------------------------------------------|
G|------2----------4-------------------------------------------------------|
D|---2----------4----------------------------------------------------------|
A|0----------2-------------------------------------------------------------|
E|-------------------------------------------------------------------------|

Intro Solo: Live on Roadkill Video (Distorted) Not 100% Correct?

e|-------------------------------------------------------------------11-11-|
B|------------------------------10b=-9x-9=--------------10/12=--10/12------|
G|11b-11br-11b===---11b-8h9p8=-9-----------11p9p8--------------------------|
D|-----------------------------------------------11p9~---------------------|
A|-------------------------------------------------------------------------|
E|-------------------------------------------------------------------------|


e|12-11h12-12--11h12-11----------------------------------------------------|
B|----------------------14-12----------------------------------------------|
G|----------------------------14p12p11-------------------------------------|
D|------------------------------------14p13--13b-13br-13b=-13-10=--12-7----|
A|-------------------------------------------------------------------------|
E|-------------------------------------------------------------------------|


e|11!--------------------------------------------------12p11h12-11h12h14---|
B|--------------------------------------------12/14-14---------------------|
G|---11b-11b-11b-11br-9-7-9-7----------------------------------------------|
D|----------------------------11-9-----------------------------------------|
A|---------------------------------12x-11x-9x------------------------------|
E|-------------------------------------------------------------------------|


e|14b-14b-14br-11h12p11----------------------------------------------------|
B|---------------------14=-12h14-14-12-10-9-9-10-9----9--------------------|
G|-------------------------------------------------11---11-9-8-9-8---------|
D|-----------------------------------------------------------------11-9-11-|
A|-------------------------------------------------------------------------|
E|-------------------------------------------------------------------------|


e|-------------------------------------------------------------------------|
B|-------------------------------------------------------------------------|
G|--------9-8-11-9~--9-8---------------------------------------------------|
D|11=--11-9--------------11-9--------------------------------------9h11-11x|
A|----------------------------12x-11x-9x--------------------9h11h12--------|
E|---------------------------------------12x-11x-9~--9h11h12---------------|


e|-------------------------------------------------------------------------|
B|-------------------------------10b-9h10p9--9-----------------------------|
G|11b--11br~--11b-11br-8h9p8-9~------------11-11p9p8-----------------------|
D|--------------------------------------------------11p9-------------------|
A|------------------------------------------------------12p11p9------------|
E|-------------------------------------------------------------12p11p9~-7h9|

Chorus: Clean (Distorted chords over the top)
[ Tab from: http://www.guitartabs.cc/tabs/s/skid_row/18_and_life_tab_ver_4.html ]
e|------------------------------0------------------------------------------|
B|---------------------------0-----0--------4------------------------------|
G|------6-----------2------------------------------------------------------|
D|---6-----6-----2-----2-----------------4---------------------------------|
A|4-----------0-----------------------2--------3---------------------------|
E|------------------------0------------------------------------------------|

Bridge: (Distorted - 1 minute, 22 seconds in...)

e|-------------------------------------------------------------------------|
B|-------------------------------------------------------------------------|
G|11b--11br--9--11--9---8h9p8----------------------------------------------|
D|----------------------------11-------------------------------------------|
A|-------------------------------------------------------------------------|
E-------------------------------------------------------------------------|

Solo: (Tricky and extremely fast towards the end!)
			    
e|-------------------------------------------------------------------------|
B|---------------------------------------------------------9h12p9--12b-----|
G|8h9-------8h9-------8h9-9!b~~---9br-8h9--------8h9-----------------------|
D|----11--------11------------------------9~~--------11--------------------|
A|-------------------------------------------------------------------------|
E|-------------------------------------------------------------------------|


e|----------------------------------------------------------------9--------|
B|12br--10-9------10--------------------------------9h10-12-10~--9x--12-10-|
G|------------11b----11br--9\8-8~----8-9!br--8-9-11------------------------|
D|-----------------------------9~------------------------------------------|
A|-------------------------------------------------------------------------|
E|-------------------------------------------------------------------------|


e|--------------------------------------------------19-17p16h17--16h17p16--|
B|9----------------------------14~--17b~-17br-16h17------------19----------|
G|11-9-8h9-8~~----------8h9h11---------------------------------------------|
D|--------------9h10-10----------------------------------------------------|
A|-------------------------------------------------------------------------|
E|-------------------------------------------------------------------------|


e|-------------------------19b~~~~~----------------------------------------|
B|19p17p16h17--16h17p16----------------------------------------------------|
G|----------18--------18p16------------------------------------------------|
D|-------------------------------------------------------------------------|
A|-------------------------------------------------------------------------|
E|-------------------------------------------------------------------------|

Outro: (Distorted)

e|-------------------------------------------------------------------------|
B|-------------------------------------------------------------------------|
G|/9-8----------------------------/9-8-------------------------------------|
D|-----9~----9h11----------------------9~----9h11--------------------------|
A|----------------11~----11h12-9~-----------------11~----11h12-7/9---------|
E|-------------------------------------------------------------------------|


e|-------9h11h12p11--11b-11br-----------------------------9h11-11b-12p11---|
B|9h10h12---------------------12~~-12h14--------------------------------12-|
G|---------------------------------------13~-13h14-11~~--------------------|
D|-------------------------------------------------------------------------|
A|-------------------------------------------------------------------------|
E|-------------------------------------------------------------------------|


e|11b-11br-------11b-11br-11b~---------------------------------------------|
B|---------12~~-----------------------------9h10h12-12b-12br---------------|
G|-----------------------------11b-11b-11br------------------11b-11br-11-9~|
D|-------------------------------------------------------------------------|
A|-------------------------------------------------------------------------|
E|-------------------------------------------------------------------------|


| /   Slide up
| \   Slide down
| B   Bend
| br  Bend Release
| h   Hammer-on
| p   Pull-off
| ~   Vibrato
| +   Harmonic
| x   Mute note
| !   Artificial Harmonic
| =   Let Note Ring Out
============================================================================
Comments