Skiba Matt - The City That Day Chords & Tabs

 

The City That Day Chords & Tabs

Skiba Matt Chords & Tabs

Version: 1 Type: Tab 0 ratings
1 star 2 stars 3 stars 4 stars 5 stars
comments

The City That Day Tab

Song- The city that day

By- Matt Skiba (alkaline trio)

From- Matt skiba and Kevin Seconds split

Tabbed by- cotton_weary

       This is a great song. Matt skiba's half is way better than Kevin
Seconds. This was the 1st song that caught my ear and it's so easy. 
ENJOY!!!!!!!

[ Tab from: http://www.guitartabs.cc/tabs/s/skiba_matt/the_city_that_day_tab.html ]
E-|--------------------------
B-|--------------------------
G-|--8------------------------
D-|--8-------8----6-----------
A-|--6-------8----6----------
E-|----------6----4----------

       You play these chords all through the song until you reach the
 last "to the city that day"'s  where you change to:

E-|----------------------------
B-|----------------------------
G-|---8------------------------
D-|---8------10----8-----6-----
A-|---6------10----8-----6-----
E-|----------8-----6-----4-----
Comments