Skeptix - Curfew Chords & Tabs

 

Curfew Chords & Tabs

Skeptix Chords & Tabs

Version: 1 Type: Tab 0 ratings
1 star 2 stars 3 stars 4 stars 5 stars
comments

Curfew Tab

Title: The Skeptix
Song: Curfew
Author: DarbyCrash17
Authors Note: Since nobody post's 
Any Skeptix tabs I got my lazy ass
Up and started figuring some out

                      -Ron

Intro
e|--------------------------------------------------------|
B|--------------------------------------------------------|
G|--6-3------6-3------6-3------6-3------------------------|
D|--6-3------6-3------6-3------6-3-->>>>>PICK>SLIDE>>>>>--|
A|--4-1------4-1------4-1------4-1-->>>>>>>>>>>>>>>>>>>>--|
E|--------------------------------------------------------|
[ Tab from: http://www.guitartabs.cc/tabs/s/skeptix/curfew_tab.html ]
Verse
e|--------------------------------------------------------|
B|--------------------------------------------------------|
G|--6-6-6--3-3-3-----3------------------------------------|
D|--6-6-6--3-3-3--6--3------------------------------------|4X
A|--4-4-4--1-1-1-6--1------------------------------------|
E|----------------4---------------------------------------|

Chorus
e|--------------------------------------------------------|
B|--------------------------------------------------------|
G|--8-8-8-8-8-8-8-8--11-11-11-11--10-10-10-10-------------|
D|--8-8-8-8-8-8-8-8--11-11-11-11--10-10-10-10-------------|4X
A|--6-6-6-6-6-6-6-6---9--9--9--9---8--8--8--8-------------|
E|--------------------------------------------------------|

Then you play the intro again and play the whole thing 
3 times 


Dedicated to Nataly since she has
A phone call curfew at 8:30 in 
School days and 9:30 in weekends!
Comments