Skeletones - Kick De Bucket Chords & Tabs

 

Kick De Bucket Chords & Tabs

Skeletones Chords & Tabs

Version: 2 Type: Bass Tab 0 ratings
1 star 2 stars 3 stars 4 stars 5 stars
comments

Kick De Bucket Bass Tab

SONG: KICK DE BUCKET
BAND: THE SKELETONES
TABBED BY: BEN MEYER bnem@oakweb.com


VERSE:
[ Tab from: http://www.guitartabs.cc/tabs/s/skeletones/kick_de_bucket_btab_ver_2.html ]
G:--------------------------------------5---
D:-----2-3-5-----4-5-7-----6-7-9------4---7-
A:-3-3-------5-5-------7-7-------5-5--------
E:------------------------------------------


CHORUS:

G:--------------------------------------------------5-7------5-
D:----------------------------------------------5-7------------
A:3-3-3-5-5-5-7-7-7-5-5-5-3-3-3-5-5-5-7-7-7-5-7----------------
E:---------------------------------------------------------5---
Comments