Skeletal Family - Just A Friend Chords & Tabs

 

Just A Friend Chords & Tabs

Skeletal Family Chords & Tabs

Version: 1 Type: Bass Tab 0 ratings
1 star 2 stars 3 stars 4 stars 5 stars
comments

Just A Friend Bass Tab

Artist: Skeletal Family
Song: Just A Friend
Tuning: standard tuning - EADG
Tabbed by: Paty "WiS" Ramirez

[ Tab from: http://www.guitartabs.cc/tabs/s/skeletal_family/just_a_friend_btab.html ]
Intro/Verse
|-----7-----7----7-----7-----------|
|----------------------------------|
|--5-----5----5----5---------------|
|----------------------------------|


Chorus
|----10----10----10----10------9----9----9----9|
|----------------------------------------------|
|-8-----8------8----8-------7-----7----7---7---|
|----------------------------------------------|
Comments