Skeletal Family - Batman Chords & Tabs

 

Batman Chords & Tabs

Skeletal Family Chords & Tabs

Version: 1 Type: Bass Tab 0 ratings
1 star 2 stars 3 stars 4 stars 5 stars
comments

Batman Bass Tab

Artist: Skeletal Family
Song: Batman
Tuning: Standard tuning EADG
Tabbed by: Pati "WiS" Ramirez
e-mail me: thespookykidz@hotmail.com
web blog: http://futile.weblogger.com.br


Repeat 3 times
|----------------------------------------------------------------------|
|----------------------------------------------------------------------|
|--5-5-4-4-3-3-4-4--5-5-4-4-3-3-4-4--5-5-4-4-3-3-4-4--5-5-4-4-3-3-4-4--|
|----------------------------------------------------------------------|


|----------------------------------------------------------------------|
|----------------------------------------------------------------------|
|--5-5-4-4-3-3-4-4--5-5-4-4-3-3-4-4--5-5-4-4-3-3-4-4--5-5-4-4-3-3-4-4--|
|----------------------------------------------------------------------|

[ Tab from: http://www.guitartabs.cc/tabs/s/skeletal_family/batman_btab.html ]
|----------------------------------------------------------------------|
|----------------------------------------------------------------------|
|--5-5-4-4-3-3-4-4--5-5-4-4-3-3-4-4--5-5-4-4-3-3-4-4--5-5-4-4-3-3-4-4--|
|----------------------------------------------------------------------|

|----------------------------------------------------------------------|
|--5-5-4-4-3-3-4-4-5-5-4-4-3-3-4-5-------------------------------------|
|-------------------------------------5-5-4-4-3-3-4-4-5-5-4-4-3-3-4-4--|
|----------------------------------------------------------------------|

|----------------------------------------------------------------------|
|--7-7-6-6-5-5-6-7--5-5-4-4-3-3-4-5------------------------------------|
|----------------------------------------------------------------------|
|----------------------------------------------------------------------|
Comments