Skarlet - Ugly Beast Chords & Tabs

 

Ugly Beast Chords & Tabs

Skarlet Chords & Tabs

Version: 1 Type: Tab 0 ratings
1 star 2 stars 3 stars 4 stars 5 stars
comments

Ugly Beast Tab

   
-------------------------------------------------------------------------------
                           skarlet - ugly beast
-------------------------------------------------------------------------------

Tuning:standard

INTRO/VERSE
e|------3333-2222-222|
B|-2222-0000-3333-222|
G|-2222-0000-2222-222|   x6
D|-2222-0000-0000-000|
A|-0000-2222---------|
E|------3333---------|

CHORUS
e|-00000-00000-00000-00000-00000-|
B|-33333-55555-33333-11111-33333-|
G|-44444-66666-44444-22222-44444-|
D|-55555-77777-55555-33333-55555-|
A|-------------------------------|
E|-------------------------------|

VERSE
e|------3333-2222-222|
B|-2222-0000-3333-222|
G|-2222-0000-2222-222|   x4
D|-2222-0000-0000-000|
A|-0000-2222---------|
E|------3333---------|
[ Tab from: http://www.guitartabs.cc/tabs/s/skarlet/ugly_beast_tab.html ]
INTERLUDE
e|--------6666-5555-|
B|-555555-0000-6666-|
G|-555555-0000-5555-|  x2
D|-555555-0000-0000-|
A|-000000-5555------|
E|--------6666------|

CHORUS
e|-00000-00000-00000-00000-00000-|
B|-33333-55555-33333-11111-33333-|
G|-44444-66666-44444-22222-44444-|
D|-55555-77777-55555-33333-55555-|
A|-------------------------------|
E|-------------------------------|

CHORUS
e|-00000-00000-00000-00000-00000-|
B|-33333-55555-33333-11111-33333-|
G|-44444-66666-44444-22222-44444-|
D|-55555-77777-55555-33333-55555-|
A|-------------------------------|
E|-------------------------------|

OUTRO
e|------3333-2222-222|
B|-2222-0000-3333-222|
G|-2222-0000-2222-222|   x3
D|-2222-0000-0000-000|
A|-0000-2222---------|
E|------3333---------|

ENDING
e|-----------------------0-----------0-|
B|-2---5---7---5---2---1---1---------1-|
G|-2---5---7---5---2---1-----1-------1-|
D|-2---5---7---5---2---1-------1-----1-|
A|-0---0---0---0---0---0---------0---0-|
E|---------------------------------0-0-|
Comments