Skarlet - Disfigured Face Chords & Tabs

 

Disfigured Face Chords & Tabs

Skarlet Chords & Tabs

Version: 1 Type: Tab 0 ratings
1 star 2 stars 3 stars 4 stars 5 stars
comments

Disfigured Face Tab

   
skarlet - disfigured face

INTRO/VERSE
e|00000/0000/000-|
B|00000/0000/000-|
G|22222/5555/777-|
D|33333/6666/888-|  x8
A|33333/6666/888-|
E|---------------|

PRE CHORUS
e|------------------------------|
B|------------------------------|
G|------------------------------|
D|---2----2-------3--------3----|  x2
A|-2--2--2--2---3---3----3---3--|
E|0----0------3--------3--------|
[ Tab from: http://www.guitartabs.cc/tabs/s/skarlet/disfigured_face_tab.html ]
CHORUS
e|-------------------------|
B|-------------------------|
G|-----2-55-77-----7-55-22-|
D|---3---66-88---8---66-33-|  x4
A|-3-----66-88-8-----66-33-|
E|-------------------------|

VERSE
e|00000/0000/000-|
B|00000/0000/000-|
G|22222/5555/777-|
D|33333/6666/888-|  x8
A|33333/6666/888-|
E|---------------|

PRE CHORUS
e|------------------------------|
B|------------------------------|
G|------------------------------|
D|---2----2-------3--------3----|  x2
A|-2--2--2--2---3---3----3---3--|
E|0----0------3--------3--------|

CHORUS
e|-------------------------|
B|-------------------------|
G|-----2-55-77-----7-55-22-|
D|---3---66-88---8---66-33-|  x4
A|-3-----66-88-8-----66-33-|
E|-------------------------|
Comments