Skarlateens - Case 11 Passez 2 Tours Chords & Tabs

 

Case 11 Passez 2 Tours Chords & Tabs

Skarlateens Chords & Tabs

Version: 1 Type: Bass Tab 0 ratings
1 star 2 stars 3 stars 4 stars 5 stars
comments

Case 11 Passez 2 Tours Bass Tab

   
www.skarlateens.be.tf
Belgium

Tabbed by Dav
Artist: Skarlateens 
Title: Case 11, passez 2 tours
Instument: Bass

  Intro
g:---------------------------------------------------------------| 
d:---------------------------------------------------------------| 
a:-------------------------2-2-2-2-------------------------------| 
e:-4-4-4-4-0-0-0-0-2-2-2-2---------4-4-4-4-0-0-0-0-2-2-2-2~-ROCK!|
  
  Couplet (4x)
g:----------------------------------------------------------------| 
d:----------------------------------------------------------------| 
a:-------------------------2-2-2-2--------------------------------| 
e:-4-4-4-4-0-0-0-0-2-2-2-2---------4-4-4-4-0-0-0-0-2-2-2-2~-------|
  
  Refrain (3x + 1x vide)
g:---------------------------------| 
d:---------------------------------| 
a:---------------------------------| 
e:-0-0-0-0-4-4-4-4-0-0-0-0-2-2-2-2-|
[ Tab from: http://www.guitartabs.cc/tabs/s/skarlateens/case_11_passez_2_tours_btab.html ]
  Couplet (4x)
g:----------------------------------------------------------------| 
d:----------------------------------------------------------------| 
a:-------------------------2-2-2-2--------------------------------| 
e:-4-4-4-4-0-0-0-0-2-2-2-2---------4-4-4-4-0-0-0-0-2-2-2-2~-------|

  Refrain (3x + 1x vide)
g:---------------------------------| 
d:---------------------------------| 
a:---------------------------------| 
e:-0-0-0-0-4-4-4-4-0-0-0-0-2-2-2-2-|

  Couplet (2x)
g:----------------------------------------------------------------| 
d:----------------------------------------------------------------| 
a:-------------------------2-2-2-2--------------------------------| 
e:-4-4-4-4-0-0-0-0-2-2-2-2---------4-4-4-4-0-0-0-0-2-2-2-2~-------|

  Refrain (3x + 1x vide)
g:---------------------------------| 
d:---------------------------------| 
a:---------------------------------| 
e:-0-0-0-0-4-4-4-4-0-0-0-0-2-2-2-2-|

  Couplet (2x)
g:----------------------------------------------------------------| 
d:----------------------------------------------------------------| 
a:-------------------------2-2-2-2--------------------------------| 
e:-4-4-4-4-0-0-0-0-2-2-2-2---------4-4-4-4-0-0-0-0-2-2-2-2~-------|
Comments