Skarlateens - Baisons Les Fachos Chords & Tabs

 

Baisons Les Fachos Chords & Tabs

Skarlateens Chords & Tabs

Version: 1 Type: Bass Tab 0 ratings
1 star 2 stars 3 stars 4 stars 5 stars
comments

Baisons Les Fachos Bass Tab

   
Tabbed by Dav
Artist: Skarlateens 
Title: Baisons les fachos
Instument: Bass

  Intro (2x)
g:-------------------------------------------------| 
d:----------------6_9--6---------------------------| 
a:----6--9--6--7-------------4--7--4-----2_5-------| 
e:-7----------------------5-----------3------3/5---|

  Couplet (6x)
g:-------------------------------------------------|
d:----------------------------6--9--6-----8--11--8-|
a:----6--9--6-----6--9--6--7-----------9-----------|
e:-7-----------7-----------------------------------|

  Break (2x)
g:-------------------------------------------------|
d:-------------------------------------------------|
a:-----------------7--7--7-9--9--9-----------------|
e:-7--7--7-7--7--7---------------------------------|
  
  Refrain (2x)
g:-------------------------------------------------|
d:-------------------------------------------------|
a:-------------------------------------------------|
e:-11-11-11-11-11-11-11-11-12-12-12-12-14-14-14-14-|

[ Tab from: http://www.guitartabs.cc/tabs/s/skarlateens/baisons_les_fachos_btab.html ]
g:-------------------------------------------------|
d:-------------------------------------------------|
a:-------------------------------------------------|
e:-11-11-11-11-11-11-11-11--7--7--7--7--9--9--9--9-|

  Couplet (6x)
g:-------------------------------------------------|
d:----------------------------6--9--6-----8--11--8-|
a:----6--9--6-----6--9--6--7-----------9-----------|
e:-7-----------7-----------------------------------|

  Refrain (2x)
g:-------------------------------------------------|
d:-------------------------------------------------|
a:-------------------------------------------------|
e:-11-11-11-11-11-11-11-11-12-12-12-12-14-14-14-14-|


g:-------------------------------------------------|
d:-------------------------------------------------|
a:-------------------------------------------------|
e:-11-11-11-11-11-11-11-11--7--7--7--7--9--9--9--9-|

  Outro (2x)
g:-------------------------------------------------| 
d:----------------6_9--6---------------------------| 
a:----6--9--6--7-------------4--7--4-----2_5-------| 
e:-7----------------------5-----------3------3/5---|

Et quand ces enfoirés viendront tout squatter, qui 
faudra-t-il appeler? BATMAN!!!

  Batman (16x)
g:---------------------------------|
d:---------------------------------|
a:---------------------------------|
e:-2-2-3-3-4-4-5-5-6-6-5-5-4-4-3-3-|
Comments