Skard - Steve Chords & Tabs

 

Steve Chords & Tabs

Skard Chords & Tabs

Version: 1 Type: Tab 0 ratings
1 star 2 stars 3 stars 4 stars 5 stars
comments

Steve Tab

elec guitar (clean)

-----------------------------------------------------------------
-----------------------------------------------------------------
-----------------------------------------------------------------
-3-3-3-0--------------------3-3-3-0------------------------------
---------2--2-2---------------------2--2-2-----------------------
----------------3--3-3-5-5----------------3--3-3-5-5-------------


---------------------------
---------------------------
-3-3-3-0-------------------Repeat this 
-3-3-3-0-2--2-2------------seven times
---------2--2-2-3--3-3-5-5-
----------------3--3-3-5-5-
 
[ Tab from: http://www.guitartabs.cc/tabs/s/skard/steve_tab.html ]
(heavy distortion)
-----------------------------------------------------------------------------------
-----------------------------------------------------------------------------------
-----------------------------------------------------------------------------------
(  repeat this four times       )-------------------------------------------5------
-5-5-5-5-5-5-5-5-3-3-3-3-3-3-3-3-9-9-9-9-9-9-9-9-7-7-7-7-7-7-7-7~~~~~~~~--5---5~~~~                            
-3-3-3-3-3-3-3-3-1-1-1-1-1-1-1-1-7-7-7-7-7-7-7-7-5-5-5-5-5-5-5-5~~~~~~~~3----------

(clean)
-----------------------------------------------------------------
-----------------------------------------------------------------
-----------------------------------------------------------------
-3-3-3-0--------------------3-3-3-0------------------------------
---------2--2-2---------------------2--2-2-----------------------
----------------3--3-3-5-5----------------3--3-3--5--5-----------


This song was summitted by Justin Fown if you have any questions,comments,or suggestions e mail me at justin_f150@yahoo.com
Comments