Skankin Pickle - Road Zombie Chords & Tabs

 

Road Zombie Chords & Tabs

Skankin Pickle Chords & Tabs

Version: 2 Type: Bass Tab 0 ratings
1 star 2 stars 3 stars 4 stars 5 stars
comments

Road Zombie Bass Tab

Skankin Pickle 
Road Zombie  
[ Tab from: http://www.guitartabs.cc/tabs/s/skankin_pickle/road_zombie_btab_ver_2.html ]
tabbed by Lee Zickwolf (leez@ushwy1.com)
                                                   
     ---------------- |---------------| --------------------
     ---------------- |---------------| --------------------
     ----7-7-----5-5- |-----7-7-------| -----7-7-----5-5----
     -5-5----8-8----- |-5-5-----8-8-3-| -5-5-----8-8--------



    -----5-----------------
    ---5---5----7----------
    -3-------5------7------
    --------------7--------
Comments