Skankin Pickle - Gas In My Car Chords & Tabs

 

Gas In My Car Chords & Tabs

Skankin Pickle Chords & Tabs

Version: 1 Type: Tab 0 ratings
1 star 2 stars 3 stars 4 stars 5 stars
comments

Gas In My Car Tab

   
Band: Skankin' Pickle
Song: Gas In My Car
Track: 1
Released: August 1996
Tabbed By: Ronny



[ Tab from: http://www.guitartabs.cc/tabs/s/skankin_pickle/gas_in_my_car_tab.html ]
Intro: (distortion)
e ----------------------------------------
B ----------------------------------------
G ---------6-6--6---5-5--5---3--3-3-------
D -6-6--6--6-6--6---5-5--5---3--3-3---6---
A -6-6--6--4-4--4---3-3--3---1--1-1---6---
E -4-4--4-----------------------------4---
   G#      C#       C        Bb       G#

Verse/Chorus
    G#  C#  C   Bbm
e --4---4---3---1--------------------------
B --4---6---5---2--------------------------
G --5---6---5---3--------------------------
D --6---6---5---3--------------------------
A -----------------------------------------
E -----------------------------------------

Bridge:
e -3--1-------
B -5--3-------
G -5--3-------
D -5--3-------
A ----1-------
E ----1-------

Outro:  Same as intro
Comments