Skankin Pickle - Gas In My Car Chords & Tabs

 

Gas In My Car Chords & Tabs

Skankin Pickle Chords & Tabs

Version: 1 Type: Bass Tab 0 ratings
1 star 2 stars 3 stars 4 stars 5 stars
comments

Gas In My Car Bass Tab

Skankin Pickle "Gas In My Car"
tabbed by:  Soothing Salve for Your Intake Valve (fooodeater@home.com)
This isn't exact, but I included two version of what sounds a whole lot
closer than the other tab:
[ Tab from: http://www.guitartabs.cc/tabs/s/skankin_pickle/gas_in_my_car_btab.html ]
Ver. 1
G|------------------------------------------------
D|------------------------------------------------
A|-------------4-4-4-4-3-3-3-3------------
E|-4-4-4-4-------------------------6-6-6-6


Ver. 2
G|------------------------------------------------
D|------------------------------------------------
A|-------------3-3-3-3-2-2-2-2------------
E|-4-4-4-4-------------------------6-6-6-6-

you repeat that through the whole song, listen to the actual song for
timing.  Once again it's not perfect but it's pretty darn close.

Comments