Skank Wars - Big Titty Bitches Chords & Tabs

 

Big Titty Bitches Chords & Tabs

Skank Wars Chords & Tabs

Version: 1 Type: Tab 0 ratings
1 star 2 stars 3 stars 4 stars 5 stars
comments

Big Titty Bitches Tab

Skank Wars,  big titty bitches 2.
Tabbed by John Slong,  Big@aol.com.
  
Intro:

|--3----2----0----0----------------------------3---|
|--3----3----0----1----------------------------3---|
|--0----2----0----0-------------------------4------|
|--0----0----2----2--------5-0--5-0---3--4--5------|
|--x---------2----3--------3-0--3-0---3--4--5------|
|--3---------0------------------------1--2--3------|


Verse/Chorus:
  
|--3----2----0----0----------|
|--3----3----0----1----------|
|--0----2----0----0----------|
|--0----0----2----2----------|
|--x---------2----3----------|
|--3---------0---------------|

Pre-Chorus:

|--1----0----3--------------|
|--1----1----3--------------|
|--2----0----0--------------|
|--3----2----0--------------|
|-------3----x--------------|
|------------3--------------|

Bridge:
[ Tab from: http://www.guitartabs.cc/tabs/s/skank_wars/big_titty_bitches_tab.html ]
|----------------------------------|
|----------------------------------|
|--3-------5---------3-------------|
|--3---3---5---5-----3---3---7---7-|
|--1---3---3---5-----1---3---7---7-|
|------1-------3---------1---5---5-|

During solo:

|-------------------------------------|
|-------------------------------------|
|--7---5---4---5----9---7---6---7-----|
|--7---5---4---5----9---7---6---7-----|
|--5---3---2---3----7---5---4---5-----|
|-------------------------------------|

Chorus 2:

|--0----0----2----2----------|
|--2----0----2----3----------|
|--2----1----2----2----------|
|--2----2----4----0----------|
|--0----2----4---------------|
|-------0----2---------------|

|--------------------------|
|--------------------------|
|--------------------------|
|----7-0---7-0---5--6--7---|
|----5-0---5-0---5--6--7---|
|----------------3--4--5---|

 
:: Ultimate Guitar Archive :: 
http://www.ultimate-guitar.com 



Comments