Skandal - Easy Silly Punk Song Chords & Tabs

 

Easy Silly Punk Song Chords & Tabs

Skandal Chords & Tabs

Version: 2 Type: Tab 0 ratings
1 star 2 stars 3 stars 4 stars 5 stars
comments

Easy Silly Punk Song Tab

EASY SILLY PUNK SONG


Hei, this im my first tab posted on "guitar tabs" so be patient with me
the song is called "sex in plex" its a song of a romanian punk band
the song was written in romanian language so i transcribed here in an aproximate way
because my very poor english ,anyway the guitar tab are just right.
i hope u like this silly easy punk song.
if want to tell me anything send my on alxpunx@yahoo.com your message
cya


    intro  4 times
   -------------------------------------------------------|
   -------------------------------------------------------|
   -------------------------------------------------------|
   ---5--5--5--5--10--10--10--10--7--7--7--7--10--9--7--5-|
   ---3--3--3--3--8---8---8---8---5--5--5--5--8---7--5--3-|
   -------------------------------------------------------|


   verses 4 times
   ---------------------------------------------------|
   ---------------------------------------------------|
   ---------------------------------------------------|
   --5--5--5--5--5--5--5--5--0------------------------|
   --3--3--3--3--3--3--3--3--0--3--3--3--3/5--5--5--5-|
   -----------------------------1--1--1--1/3--3--3--3-|
       i belive is true          you wanna  stay with as

       c`mon unaked once         cose we are ready all

   if you have courage in you    or you have a perverted mind

      c`mon here on my place     cose i am full of sex dreams

[ Tab from: http://www.guitartabs.cc/tabs/s/skandal/easy_silly_punk_song_tab_ver_2.html ]
    4 times
   -------------------------------------------------------|
   -------------------------------------------------------|
   -------------------------------------------------------|
   ---5--5--5--5--10--10--10--10--7--7--7--7--10--9--7--5-|
   ---3--3--3--3--8---8---8---8---5--5--5--5--8---7--5--3-|
   -------------------------------------------------------|
          sex          sex           sex     sex sex in plex

                       sex           sex     sex sex in pleee (screaming)

          eeeeeeeeeeeeeeeeeeeeeeeeeeeex      sex sex in plex


   ---------------------------------------------------|
   ---------------------------------------------------|
   ---------------------------------------------------|
   --5--5--5--5--5--5--5--5--0------------------------|
   --3--3--3--3--3--3--3--3--0--3--3--3--3/5--5--5--5-|
   -----------------------------1--1--1--1/3--3--3--3-|
 you was told me u are virgin      have     bad parents
                      and you

 but i see you are full          disseses   and pubic fleas(?)

 you are take are good health     you tell now if you want

 you still tell me u are virgin   tonight rape you will have
                        i quess

     8 times
   -------------------------------------------------------|
   -------------------------------------------------------|
   -------------------------------------------------------|
   ---5--5--5--5--10--10--10--10--7--7--7--7--10--9--7--5-|
   ---3--3--3--3--8---8---8---8---5--5--5--5--8---7--5--3-|
   -------------------------------------------------------|
          sex          sex           sex     sex sex in plex

                       sex           sex     sex sex in pleee (screaming)

          eeeeeeeeeeeeeeeeeeeeeeeeeeeex      sex sex in plex
Comments