Ska P - Welcome To Hell Chords & Tabs

 

Welcome To Hell Chords & Tabs

Ska P Chords & Tabs

Version: 1 Type: Tab 0 ratings
1 star 2 stars 3 stars 4 stars 5 stars
comments

Welcome To Hell Tab

   
Welcome to hell	
Ska-p	
Tabbed by Mattia Locatelli 	
mattia_locatelli@hotmail.com 	

Intro(x2):	
e-----------------------------------------------------------------------------	
B----------------------------------------------------------------------------	
G----------------------------------------------------------------------------	
D----------------------------------------------------------------------------	
A---0---3---5---0---3---5---0---3---5---6---0---5---3---------------	
E-----------------------------------------------------------------------------	

Verse(ska):	
E----------5-------5---5--------5-----------------------------------------	
B----------5-------8-\-7--------5-----------------------------------------	
G----------5------ 5---5--------5-----------------------------------------					
D----------7-------5---5--------7-----------------------------------------					
A----------7-------7---7--------7-----------------------------------------					
E----------5-------5---5--------5-----------------------------------------					
                 very fast					
 					
Bridge1-with distorsion(0:15):					
E----------------------------------------------------------------------------					
B----------------------------------------------------------------------------					
G---------------------Palm-mute--------------------------------------					
D----------------------------------------------------------------------------					
A-----7-7-----7-6-6----6-5-5------5--------3-3---------------------------					
E-----------5--------5----------5-------------5-3------------------------					

E-------------------------------------------------8-------3---------------------					 
B-------------------------------------------------8-------3---------------------					 
G---------------Palm-mute-------------------------8-------3---------------------					 
D-------------------------------------------------10------5---------------------					 
A-----7-7-----7-6-6------6-5-5------5-------------10------5----------------------					 
E-----------5-----------5---------5---------------8-------3---------------------					 
                                                  very fast					

Pre chorus1-with distortion(0:44):					

     D#5 D5  C5  A5(let ring)      D#5 D5  C5  A5  F5(8th freet)					
    Very fast                    Very fast					

     D#5 D5  C5 A5(let ring)      D#5 D5  C  A5 C5(8th freet)					
    Very fast                    Very fast					

     D#5 D5  C5 					

Pre chorus2-with distortion(1:25):			

     D#5 D5  C5  A5(let ring)      D#5 D5  C5  A5  F5(8th freet)			
    Very fast                    Very fast			
[ Tab from: http://www.guitartabs.cc/tabs/s/ska_p/welcome_to_hell_tab.html ]
     D#5 D5  C5  A5(let ring)      D#5 D5  C5  A5  C5(8th freet)			
    Very fast                    Very fast			

     D#5 D5  C5  A5(pause) G5(pause)  A5(pause)  D5(pause)  G5			

Chorus-with distortion(1:46)			

     A5  C5  G5  D5			

Bridge2 -with distorsion(2:06):			
E-------------------------------------------------8-------3---------------------			
B-------------------------------------------------8-------3---------------------	
G---------------Palm-mute-------------------------8-------3---------------------	
D-------------------------------------------------10------5---------------------     X4	
A-----7-7-----7-6-6-----6-5-5-----5---------------10------5----------------------	
E-----------5--------5----------5-----------------8-------3---------------------	
                                                  very fast	

Reggae part(2:47)	

      A5(let ring) E5(let ring) D(5th freet)(let ring)	

      A5(let ring) E5(let ring) D(10th freet)(let ring)	

      (2:57):Same riff but ska-time	

End: bridge2 + A	

Intro
Verse
Bridge1
Verse
Pre-chorus1
Verse
Pre-chorus2
Chorus
Bridge2
Verse
Reggae part
Pre-chorus2
Chorus
End


lyrics
Las horas son eternas en el sucio corredor
pensando con detalle en mi ejecución
el tiempo se me acaba y no lo puedo detener
Ehi, brother, welcome to hell
Atado en una silla me van a electrocutar
he sido condenado a la pena capital
alego mi inocencia y no lo quieren ver
Ehi, brother, welcome to hell
Ya llegó la hora, hermano chicano
Ya llegó tu hora, afroamericano
Condenan a dementes o a menores de edad
en la silla de la muerte o en la cámara de gas
a cuántos inocentes he visto perecer
Ehi, brother, welcome to hell
Vivo en un país donde todo puedes comprar
estar vivo o estar muerto depende del capital
mi futuro ya está escrito no me puedo defender
Ehi, brother, welcome to hell
Ya llegó la hora, hermano chicano
Ya llegó tu hora, afroamericano
Vigentes crimines de estado
contra la humanidad
existen derechos humanos
¡A ellos les da igual!
Welcome hell
este caso está cerrado
Welcome hell
hay que asesinarlo
Welcome hell
este caso está cerrado
Welcome hell
hay que eliminarlo
¡Welcome! ¡Welcome! ¡Death!
Cuántos seres humanos trendréis que asesinar
para daros cuenta que esto es una atrocidad
el ojo por ojo nada puede resolver
Ehi, brother, welcome to hell
Al cabo de los años consiguieron demostrar
que yo no era culpable 
y ya no hay marcha atrás
mi cuerpo está podrido y ya no puedo renacer
Ehi, brother, welcome...
Welcome...
Ya llegó la hora, hermano chicano
Ya llegó tu hora, afroamericano
Ya llegó la hora, hermano chicano
Ya llegó tu hora, afroamericano
Vigentes crimines de estado
contra la humanidad
existen derechos humanos
¡A ellos les da igual!
Welcome hell
este caso está cerrado
Welcome hell
hay que asesinarlo
Welcome hell
este caso está cerrado
Welcome hell
hay que eliminarlo
¡Welcome! ¡Welcome! ¡Death!
Comments