Ska P - Welcome To Hell Chords & Tabs

 

Welcome To Hell Chords & Tabs

Ska P Chords & Tabs

Version: 1 Type: Bass Tab 0 ratings
1 star 2 stars 3 stars 4 stars 5 stars
comments

Welcome To Hell Bass Tab

   
-------------------------------------------------------------------------------
			     Welcome to Hell - Ska-P
-------------------------------------------------------------------------------

Tabbed By : Alex Cast
e-mail: Sonikku16@yahoo.com

Tuning:Standard (E,A,D,G)

Intro!
00:05 (After Guitar intro)
G|----------------------------------|
D|----------------------------------|
A|0-0-3-5--0-0-3-5--0-0-3-5-6-6-5-5-|
E|----------------------------------| X4

00:14 (After Intro)
G|--------------------------------|
D|--------------------------------|
A|7-7-3-7--6-6-3-6--5-5-3-5-3-3---|
E|------------------------------5-|

G|---------------------------------|
D|---------------------------------|
A|7-7-3-7--6-6-3-6--5-5-3-5-3------|
E|-------------------------------5-| (Repeat those two "After Intro" twice)

Verse! 
00:24

G|---------------------------------------------------|
D|---------------------------------------------------|
A|----3-5-6-5-3-5-----3-5--------------3-5-6-5-3-5---|
E|5-5-------------5-5-----3-2-3-4--5-5-------------5-| 

HEY BROTHER, WELCOME TO HELL. 

G|---------------------------------------------------|
D|---------------------------------------------------|
A|----3-5-6-5-3-5-----3-5--------------3-5-6-5-3-5---|
E|5-5-------------5-5-----3-2-3-4--5-5-------------5-|

HEY BROTHAH~! Welcome To Hell!

Chorus
00:42

G|-------------------------------------------------------|
D|-------------------------------------------------------|
A|6-5-3-----6-5-3-----3---6-5-3-----6-5-3-----3----6-5-3-|
E|------5---------5-5-----------5---------5-5------------|
[ Tab from: http://www.guitartabs.cc/tabs/s/ska_p/welcome_to_hell_btab.html ]
(Back to intro bassline/riff)
00:55 
G|----------------------------------|
D|----------------------------------|
A|0-0-3-5--0-0-3-5--0-0-3-5-6-6-5-5-|
E|----------------------------------| X4

Verse 2!
01:05 

G|---------------------------------------------------|
D|---------------------------------------------------|
A|----3-5-6-5-3-5-----3-5--------------3-5-6-5-3-5---|
E|5-5-------------5-5-----3-2-3-4--5-5-------------5-| 

HEY BROTHER, WELCOME TO HELL. 

G|---------------------------------------------------|
D|---------------------------------------------------|
A|----3-5-6-5-3-5-----3-5--------------3-5-6-5-3-5---|
E|5-5-------------5-5-----3-2-3-4--5-5-------------5-|

HEY BROTHAH~! Welcome To Hell!

Chorus again
01:24

G|-------------------------------------------------------|
D|-------------------------------------------------------|
A|6-5-3-----6-5-3-----3---6-5-3-----6-5-3-----3----6-5-3-|
E|------5---------5-5-----------5---------5-5------------|

Bridge
01:36
(I'm a little off.. but hey)
G|--------------------------------------|
D|--------------------------------------|
A|--------------------------------------|
E|-4-4------2-2------4-4-----2-2----8-6-|

G|----------------------------------------------------------|
D|----------------------------------------------------------|
A|----------------------------------------------------------|
E|-4-4-4-4-4-4--6-6-6-6-6-6-6---2-2-2-2-2-2---8-8-8-8-8-8-8-|

Back to "After Intro"
02:05
G|---------------------------------|
D|---------------------------------|
A|7-7-3-7--6-6-3-6--5-5-3-5-3------|
E|-------------------------------5-|X4


Listen to the song n' you'll know when to repeat the stuff.
I'm waaay to lazy to even try to figure out the bass solo part thing.
So You're on your own. =P I'd write this in Spanish, but I dunno how
to spell. =/
Comments