Ska-p - Nio Soldado Chords & Tabs

 

Nio Soldado Chords & Tabs

Ska-p Chords & Tabs

Version: 1 Type: Tab 0 ratings
1 star 2 stars 3 stars 4 stars 5 stars
comments

Nio Soldado Tab

VERSE:

----------------------|
----------------------|
-7----------7---------|
-7--7--5-3--7--7--5-3-|    8x
-5--7--5-3--5--7--5-3-|
----5--3-5-----5--3-5-|

PRE-CHORUS:

----------------------|
----------------------|
-------7-----7--------|
-7--9--7--9--7--9-----|    4x
-7--9--5--9--5--9-----|
----7-----7-----7-----|

CHORUS:
[ Tab from: http://www.guitartabs.cc/tabs/s/ska_p/nio_soldado_tab.html ]
-------------------|
-------------------|
-7--------7--------|
-7--7--5--7--7--5--|    2x
-5--7--5--5--7--5--|
----5--3-----5--3--|

INTERLUDE(ska rythm):

SORRY no interlude yet...


*ORDER*

VERSE
PRE-CHORUS
CHORUS
INTERLUDE
VERSE
PRE-CHORUS
CHORUS

Tabbed by Micheal J: punkimike13@yahoo.com
                     comments or anything...
Comments