Ska P - Naval Xixon Chords & Tabs

 

Naval Xixon Chords & Tabs

Ska P Chords & Tabs

Version: 2 Type: Bass Tab 0 ratings
1 star 2 stars 3 stars 4 stars 5 stars
comments

Naval Xixon Bass Tab

NAVAL XIXON
SKA-P    

Amai ska-p is ne zalige groep en dees ist allerbeste lieke
amuseert u

David


   G ------------------------------------------------------------
   D ------------------------------------77--------------55------
   A ---------22-----------------5---5--------5------3-------3---  x5
   E -0---3--------0---3---0-------------------------------------
[ Tab from: http://www.guitartabs.cc/tabs/s/ska_p/naval_xixon_btab_ver_2.html ]
   G ------------------------------------------------------------
   D ------------------------------------77-----------------------
   A ---------22-----------------5---5---------------------------  
   E -0---3--------0---3---0-------------------------------------


   G ------------------------------------------------------------
   D ------------------------------------------------------------
   A -----3333----2222----3333----2222----3333----2222----3333---  
   E -0000----3333----0000----3333----0000----3333----0000----3--

de rest komt nog , ma da moetek nog omzette op tabs

sluaaaa
Comments