Ska P - Naval Xixon Chords & Tabs

 

Naval Xixon Chords & Tabs

Ska P Chords & Tabs

Version: 1 Type: Bass Tab 0 ratings
1 star 2 stars 3 stars 4 stars 5 stars
comments

Naval Xixon Bass Tab

   G ------------------------------------------------------------
   D ------------------------------------77--------------55------
   A ---------22-----------------5---5--------5------3-------3---  x5
   E -0---3--------0---3---0-------------------------------------

   G ------------------------------------------------------------
   D ------------------------------------77----------------------
   A ---------22-----------------5---5--------5-3----------------  
   E -0---3--------0---3---0-------------------------------------


   G ------------------------------------------------------------
   D ------------------------------------------------------------
   A -----3333----2222----3333----2222----3333----2222----3333---  
   E -0000----3333----0000----3333----0000----3333----0000----3—-

	G -----------------------------------
	D ----------------------------887----   x4	    
  	A ----------------33333333--77---7---
	E 0000000033333333--------55---------
	
	G ------------------------------------------------------------
	D ------------------------------------------------------------  	
  	A ----3----------------3---------------3------------3---------
	E 0-------3---55---0-------3---5---0------3--55--0-----3--5--5

	G ------------------------------------------------
	D --------------------------2--5--2---------------     x4
  	A ------2-------2--5--2--3-----------0—-3—-5-—7---
	E –0--3----0--3-----------------------------------

	G -----------------------------------
	D ----------------------------887----   x4	    
  	A ----------------33333333--77---7---
	E 0000000033333333--------55---------

	G ------------------------------------------------------------
	D ------------------------------------------------------------  	
  	A ----3----------------3---------------3------------3---------
	E 0-------3---55---0-------3---5---0------3--55--0-----3--5--5

[ Tab from: http://www.guitartabs.cc/tabs/s/ska_p/naval_xixon_btab.html ]
	G ------------------------------------------------
	D --------------------------2--5--2---------------     x4
  	A ------2-------2--5--2--3-----------0—-3—-5-—7---
	E –0--3----0--3-----------------------------------

	

Stop playing  for a moment and then play again …

   
	G ------------------------------------------------------------
   D ------------------------------------77--------------55------
   A ---------22-----------------5---5--------5------3-------3---  x3
   E -0---3--------0---3---0-------------------------------------

   G ------------------------------------------------------------
   D ------------------------------------77----------------------
   A ---------22-----------------5---5---------------------------  
   E -0---3--------0---3---0-------------------------------------
   
	G ------------------------------------------------------------
   D ------------------------------------------------------------
   A -----3333----2222----3333----2222----3333----2222----3333---  
   E -0000----3333----0000----3333----0000----3333----0000----3—-



	G ----------------------------------
	D ----------------------------------		x4
	A -----------------3-3-3-3----------
	E –0-0-0-0-3-3-3-3---------5-5-5-5--

	G ------------------------------------------------------------
	D ------------------------------------------------------------  	
  	A ----3----------------3---------------3------------3---------
	E 0-------3---55---0-------3---5---0------3--55--0-----3--5--5
	
	G ------------------------------------------------
	D --------------------------2--5--2---------------     x4
  	A ------2-------2--5--2--3-----------0—-3—-5-—7---
	E –0--3----0--3-----------------------------------

	G -------------------------------------------------------------------
	D -------------------------------------------------------------------
  	A ----3----------------3---------------3------------3----------------
	E 0-------3---55---0-------3---5---0------3--55--0-----3--5--5—-5—0--

Comments