Ska-p - Intifada Chords & Tabs

 

Intifada Chords & Tabs

Ska-p Chords & Tabs

Version: 1 Type: Tab

Intifada Tab

Song: Intifada
Band: Ska-P
Album: !!Que corra la voz!!
Guitarist: Pulpul/Toni


x = palm muted

***Intro - Guitar 1 - 0:00
|----------------------------------------------------------------------------||
|----------------------------------------------------------------------------||
|----------------------------------------------------------------------------||
|--------------6-6-6--5-5-5--------------------------------------------------||
|--3-3--6-6-6--4-4-4--3-3-3--------------------------------------------------||
|--1-1--4-4-4----------------------------------------------------------------||

***Intro - Guitar 2 - 0:04
|----------------------------------------------------------------------------||
|----------------------------------------------------------------------------||
|----------------------------------------------------------------------------||
|--3-------------------------------------------------------------------------||
|--3-------------------------------------------------------------------------||
|--1-------------------------------------------------------------------------||

***Pre-verse - Guitar 1 - 0:17
|--x-x-x-x--x-x-x-x--x-x-x-x--x-x-x-x----------------------------------------||
|--x-x-x-x--x-x-x-x--5-5-5-5--4-4-4-4----------------------------------------||
|--x-x-x-x--x-x-x-x--6-6-6-6--5-5-5-5----------------------------------------||
|--3-3-3-3--6-6-6-6--6-6-6-6--5-5-5-5----------------------------------------||
|--3-3-3-3--6-6-6-6--4-4-4-4--3-3-3-3----------------------------------------||
|--1-1-1-1--4-4-4-4----------------------------------------------------------||
[ Tab from: http://www.guitartabs.cc/tabs/s/ska_p/intifada_tab.html ]
***Verse - Guitar 1 - 0:26
|--x-x-x-x-x-x-x-x-x--x-x-x-x-x-x-x-x--x-x-x-x-x-x-x-x--x-x-x-x-x-x-x-x------||
|--x-x-x-x-x-x-x-x-x--x-x-x-x-x-x-x-x--5-5-5-5-5-5-5-5--4-4-4-4-4-4-4-4------||
|--x-x-x-x-x-x-x-x-x--x-x-x-x-x-x-x-x--6-6-6-6-6-6-6-6--5-5-5-5-5-5-5-5------||
|--3-3-3-3-3-3-3-3-3--6-6-6-6-6-6-6-6--6-6-6-6-6-6-6-6--5-5-5-5-5-5-5-5------||
|--3-3-3-3-3-3-3-3-3--6-6-6-6-6-6-6-6--4-4-4-4-4-4-4-4--3-3-3-3-3-3-3-3------||
|--1-1-1-1-1-1-1-1-1--4-4-4-4-4-4-4-4----------------------------------------||

***Chorus - Guitar 1 - 0:43
|----------------------------------------------------------------------------||
|----------------------------------------------------------------------------||
|----------------------------------------------------------------------------||
|--------------6-6-6--5-5-5--------------------------------------------------||
|--3-3--6-6-6--4-4-4--3-3-3--------------------------------------------------||
|--1-1--4-4-4----------------------------------------------------------------||

***Chorus - Guitar 2 - 0:43
|----------------------------------------------------------------------------||
|----------------------------------------------------------------------------||
|----------------------------------------------------------------------------||
|--------------6--5-5-5------------------------------------------------------||
|--6--3--6--3--4--3-3-3------------------------------------------------------||
|--4--1--4--1----------------------------------------------------------------||

***Interlude - Guitar 1 & 2 - 1:27
|----------------------------------------------------------------------------||
|----------------------------------------------------------------------------||
|----------------------------------------------------------------------------||
|---------------------8---6--6-6-6-6-6-6-----------8---6---------------------||
|--8---10-----3---6---6---4--4-4-4-4-4-4---3---6---6---4---------------------||
|--6---8------1---4------------------------1---4-----------------------------||
                             x x   x x

|----------------------------------------------------------------------------||
|----------------------------------------------------------------------------||
|----------------------------------------------------------------------------||
|--------6--5----------6--6--------------------------------------------------||
|--3--6--4--3----3--6--4--3--------------------------------------------------||
|--1--4----------1--4--------------------------------------------------------||