Ska-p - A La Mierda Chords & Tabs

 

A La Mierda Chords & Tabs

Ska-p Chords & Tabs

Version: 1 Type: Tab 0 ratings
1 star 2 stars 3 stars 4 stars 5 stars
comments

A La Mierda Tab

   
 TITOLO: A LA MIERDA
    ARTISTA: SKA-P
    ALBUM:
    

  INTRO/VERSE: *=x8    

  GUITAR A                 
  
  E------------------]     
  B------------------]     
  G------7--9--5-----]
  D---5--7*-9*-5*----] X2  	
  A---5*-5--7--3-----]   
  E---3--------------]    
  pm  .  .  .  .     ]      

  GUITAR B fast muting with pauses 

  E--------------------------------------------------------------------------------]
  B--------------------------------------------------------------------------------]
  G------7-7-7-7-7-7-7-7-7-7-7-7-9-9-9-9-9-9-9-9-9-9-9-9-5-5-5-5-5-5-5-5-5-5-5-5---]
  D---5--7-7-7-7-7-7-7-7-7-7-7-7-9-9-9-9-9-9-9-9-9-9-9-9-5-5-5-5-5-5-5-5-5-5-5-5---]
  A---5*-5-5-5-5-5-5-5-5-5-5-5-5-7-7-7-7-7-7-7-7-7-7-7-7-3-3-3-3-3-3-3-3-3-3-3-3---]
  E---3----------------------------------------------------------------------------]
  pm  .  . .   . .   . .   . .   . .   . .   . .   . .   . . . . . . let ring!!!!!

  CHORUS: A&B X2

  E--------------------------------------------------------------------------------]
  B--------------------------------------------------------------------------------]
  G-----------7-7-7-7-9-9-9-9-5-5-5-5---------7-7-7-7-5-5-5-5----------------------]
  D---5-5-5-5-7-7-7-7-9-9-9-9-5-5-5-5-5-5-5-5-7-7-7-7-5-5-5-5----------------------]
  A---5-5-5-5-5-5-5-5-7-7-7-7-3-3-3-3-5-5-5-5-5-5-5-5-3-3-3-3----------------------]
  E---3-3-3-3-------------------------3-3-3-3--------------------------------------]

  VERSE:  A&B ska rhythm X2

  E-------------------10-10-10-10-10-10-10-10-12-12-12-12-12-12-12-12-8-8-8-8-8-8-8-8-]
  B---8-8-8-8-8-8-8-8-10-10-10-10-10-10-10-10-12-12-12-12-12-12-12-12-8-8-8-8-8-8-8-8-]
  G---7-7-7-7-7-7-7-7-----------------------------------------------------------------]
  D-----------------------------------------------------------------------------------]
  A-----------------------------------------------------------------------------------]
  E-----------------------------------------------------------------------------------]
  
  CHORUS
[ Tab from: http://www.guitartabs.cc/tabs/s/ska_p/a_la_mierda_tab.html ]
  BRIDGE: A                 BRIDGE: B  v= vibrato        BRIDGE: A&B end with: 
  
  E-----------------]       E----------------------]     E--------------------]
  B-----------------]       B----------------------]     B--------------------]
  G---9-7-5--9-7-14-] X2    G---9-7-5--9-7---------] X2  G-----7-5------------]
  D---9-7-5--9-7-14-]       D---9-7-5--9-7-7-------]     D---5-7-5------------]
  A---7-5-3--7-5-12-]       A---7-5-3--7-5-7---12v-]     A---5-5-3------------]
  E-----------------]       E--------------5-------]     E---3----------------]


  INTERLUDE A:                                  INTERLUDE B:
                                            
  E-----------------------------------------]   E-----------------------------]
  B-----------------------------------------]   B-----------------------------]
  G---12-------11-----------------12--------]   G------7--9--5----------------]
  D------12-------12-----14-12-------12-----]   D---5--7*-9*-5*---------------]
  A---------10-------10--------10-------10--]   A---5*-5--7--3----------------]
  E-----------------------------------------]   E---3-------------------------]
 						pm  .  .  .  .

  VERSE

  CHORUS X2

  BRIDGE

  VERSE slow rhythm raggae

  PRE-CHORUS
  
  E-------------------------------------]
  B-------------------------------------]
  G---5-4-5-4-5-7-----------------------]
  D---5-4-5-4-5-7-----------------------]
  A---3-2-3-2-3-5-----------------------]
  E-------------------------------------]

  CHORUS 2 A

  E-------------------------------------]
  B-------------------------------------]
  G---7-9-11-7---9-7--------------------]
  D---7-9-11-7-7-9-7--------------------] X2
  A---5-7-9--5-7-7-5--------------------]
  E------------5------------------------]
 
  CHORUS 2 B
  
  E--------------------------------------------------------------------------------]
  B-------7---------7--------------------------------------------------------------]
  G-----9---7---9-9---9------------------------------------------------------------]
  D---7-------7---------7LET RING!!!!!!!-------------------------------------------]
  A--------------------------------------------------------------------------------]
  E--------------------------------------------------------------------------------] 

    

  GREAT!!!! the only part than i'm not sure is this chorus 2b the rest seems to be perfect.
  comments? corrections? mail me! slideofcrash@virgilio.it      by Tiziano Pozzi
Comments