Sixpence None The Richer - Kiss Me Chords & Tabs

 

Kiss Me Chords & Tabs

Sixpence None The Richer Chords & Tabs

Version: 2 Type: Bass Tab 0 ratings
1 star 2 stars 3 stars 4 stars 5 stars
comments

Kiss Me Bass Tab

   
Artist: Sixpence None The Richer
Song: Kiss Me
Tabbed by: Dan Rowden

***  bass-tabs.co.uk - http://www.bass-tabs.co.uk  ***

Drop all of your strings down a step, to E flat, A flat, D flat, and
G flat

There is no bass in the first verse. First bit you do is the bridge

You really need to listen to the song to get the rhythm right

Verse Riff:
G|-----------|-----------|-----------|-----------|
D|-----------|-----------|-----------|-----------|
A|-----------|-----------|-----------|-----------|
E|-070---0-0-|-070---0-0-|-070---0-0-|-070---0-0-|

Chorus:
G|---------|---------|---------|---------|
D|---------|-2-------|---------|-2---2-2-|
A|-----2-2-|-----4-4-|-----2-2-|---------|
E|-2-------|---------|-2-------|---------|

G|---------|---------|---------|---------|---------|
D|-4-------|-2---1---|---------|---------|---------|
A|-----2-2-|---------|-4---2---|---------|---------|
E|---------|---------|---------|-5-------|-5/7-----|
[ Tab from: http://www.guitartabs.cc/tabs/s/sixpence_none_the_richer/kiss_me_btab_ver_2.html ]
Middle 8:
G|-----------|-----------|-----------|-----------|
D|------22---|------12---|------02---|------12---|
A|----2----2-|----2----2-|----2----2-|----2----2-|
E|-0---------|-0---------|-0---------|-0---------|

Chorus 2:
G|---------|---------|---------|---------|
D|---------|-2-------|---------|-2---2-2-|
A|-----2-2-|-----4-4-|-----2-2-|---------|
E|-2-------|---------|-2-------|---------|

G|---------|---------|---------|---------|
D|-4-------|-2-------|---------|-2---2-2-|
A|-----2-2-|-----4-4-|-----2-2-|---------|
E|---------|---------|-2-------|---------|

G|---------|---------|---------|---------|---------|
D|-4-------|-2---1---|---------|---------|---------|
A|-----2-2-|---------|-4---2---|---------|---------|
E|---------|---------|---------|-5--5/7--|-7-------|


Song order:

Verse (no bass)
Chorus
Middle 8
Verse Riff (x2)
Chorus
Middle 8
Chorus 2
Middle 8 (x2)
Verse Riff (x2)


Any comments or suggestions? dan@bass-tabs.co.uk
Visit my website at http://www.bass-tabs.co.uk
Comments