Sixpence None The Richer - Dont Dream Its Over Chords & Tabs

 

Dont Dream Its Over Chords & Tabs

Sixpence None The Richer Chords & Tabs

Version: 2 Type: Tab 0 ratings
1 star 2 stars 3 stars 4 stars 5 stars
comments

Dont Dream Its Over Tab

   
“DON’T DREAM IT’S OVER”
Sixpence None the Richer

Hello to all guitarists!!I'm sure it is correct hope you enjoy!!!

INTRO: F-Eb (2x)

Guitar 1: Do Harmonic Strumming

   F                    Eb  

|---8----x---|     |---8----x---|
|---8----x---|     |---8----x---|
|--10----x---|     |---8----x---|
|--10----x---|     |---10---x---|
|---8----x---|     |---8----x---|
|--------x---|     |--------x---|

Guitar 2:

     F     Eb            F       Eb        

|----------------------------------------------|
|-----------------11---------------------11----|
|---10-----8------8------10------8-------8-----|
|---10-----10-----10-----10------10------10----|
|----------------------------------------------|
|----------------------------------------------|



Stanza 1: F-Dm-Bb-A (2x)

Guitar 1: Do Harmonic Strumming
  
   F                    Dm  

|---8-------|     |---5--------| 
|---8-------|     |---6--------|
|--10-------|     |---7--------|
|--10-------|     |---7--------|
|---8-------|     |---5--------|
|-----------|     |------------|
   Bb                 A  

|---1-------|     |---0--------|
|---3-------|     |---2--------|
|---3-------|     |---2--------|
|---3-------|     |---2--------|
|---1-------|     |---0--------|
|-----------|     |------------|

Guitar 2: (Hold)

   F      Dm      Bb     A      F      Dm      Bb    A

|--8------5-------6------5------8------5-------6-----5---|
|--8------6-------6------5------8------6---6---6-----5---|
|--10-----7-------7------6------10---------7---7-----6---|
|--10-----7-------8------7------10-------------8-----7---|
|--8------5-------8------7------8--------------8-----7---|
|-----------------6------5---------------------6-----5---|

Chorus: Bb-C-F-Dm 
        Bb-C-F-Dm
        Bb-C-F-Dm
        Bb---C-

Guitar 1 & 2 (Strumming)

   Bb                 C  

|---1-------|     |---3--------|
|---3-------|     |---5--------|
|---3-------|     |---5--------|
|---3-------|     |---5--------|
|---1-------|     |---3--------|
|-----------|     |------------|

    F                 Dm  

|---1-------|     |---5--------|
|---1-------|     |---6--------|
|---2-------|     |---7--------|
|---3-------|     |---7--------|
|---3-------|     |---5--------|
|---1-------|     |------------|


Stanza 2: F-Dm-Bb-A (2x)

Guitar 1: Do Harmonic Strumming
  
   F                    Dm  

|---8-------|     |---5--------| 
|---8-------|     |---6--------|
|--10-------|     |---7--------|
|--10-------|     |---7--------|
|---8-------|     |---5--------|
|-----------|     |------------|
   Bb                 A  

|---1-------|     |---0--------|
|---3-------|     |---2--------|
|---3-------|     |---2--------|
|---3-------|     |---2--------|
|---1-------|     |---0--------|
|-----------|     |------------|

Guitar 2: (Hold)

   F      Dm      Bb     A      F               F
[ Tab from: http://www.guitartabs.cc/tabs/s/sixpence_none_the_richer/dont_dream_its_over_tab_ver_2.html ]
|--8------5-------6------5--------------------------|
|--8------6-------6------5-----------2h3h2----------|
|--10-----7-------7------6--------2---------2/--10--|
|--10-----7-------8------7------2-----------2/--10--|
|--8------5-------8------7---0----------------------|
|-----------------6------5--------------------------|


      Dm      Bb     A      F               

|-----5-------6------5----5---------------------|
|-----6-------6------5------5-------------------|
|-----7-------7------6--------6-----------------|
|-----7-------8------7----------7---------------|
|-----5-------8------7------------7-------------|
|-------------6------5--------------5-----------|


Chorus 2: Bb-C-F-Dm
          Bb-C-F-Dm
          Bb-C-F-Dm
          Bb---


Adlib:

Guitar 1: (Strumming)

FDm—-BbA—
FDm—-BbA—
Bb—-F--
Bb--F—-
Bb—-F—
Eb----


Guitar 2:

|--------------------------------------|
|-----------------------8--------------|
|-----5------2-/-7-9-10---9--7-6-------|
|-7-5---3--2---------------------------|
|--------------------------------------|
|--------------------------------------|

|-------8-----10-10-12---13-12-10-8--------12-10-9-------|
|--10-8---10------------------------11-10----------12-10-|
|--------------------------------------------------------|
|--------------------------------------------------------|
|--------------------------------------------------------|
|--------------------------------------------------------|

|-------8--6-----------5-------8-6-----3h5-3-------------8-6---------5-|
|-----6----6--6-----6--6-----6---6-6---------6-3-------6---6-6----6--6-|
|-5h7-----------5h7------5h7---------5-----------5-5h7---------5h7---5-|
|----------------------------------------------------------------------|
|----------------------------------------------------------------------|
|----------------------------------------------------------------------|

|--3---------------------------------------------13----|
|--4--------------------11------------------11---13----|
|--3-----------10—10h12--------------10h12-------------|
|-------10h12--------------10h12-10--------------------|
|------------------------------------------------------|
|------------------------------------------------------|


Stanza 3:

Guitar 1: Do Stanza Chords (Strumming)

Guitar 2:


   F      Dm      Bb    A                 

|--8------5-------6-----------------------|
|--8------6-------6-----------------------|
|--10-----7-------7-----------6—6h7-6-----|
|--10-----7-------8----------7--------7---|
|--8------5-------8---------7-----------7-|
|-----------------6-----5-----------------|

   F      Dm     Bb   A    

|--8------5------6---------5--------9--------12---------|
|--8------6-6----6----1/3------3/5----5/10--------8-----|
|--10-------7----7----------------------------------10--|
|--10------------8--------------------------------------|
|--8-------------8--------------------------------------|
|----------------6--------------------------------------|


Chorus 3:

Guitar 1& 2 (Do Chorus Chords Strumming Pattern)


Outro and Chorus Fading:

Guitar 1: (Do Chorus Chords, Strumming Pattern)

Guitar 2:(Fading Pattern)


|--------------------------------------------------|
|------------------------------------6-------------|
|--7-5-----------5----5----------------5-----------|
|------8-7--5--7----7---8-7-5----5h7---------------|
|-----------------------------8--------------------|
|--------------------------------------------------|

Sana matulungan kyo nito :) :*
Comments