Sixpence None The Richer - Dont Dream Its Over Chords & Tabs

 

Dont Dream Its Over Chords & Tabs

Sixpence None The Richer Chords & Tabs

Version: 1 Type: Bass Tab 0 ratings
1 star 2 stars 3 stars 4 stars 5 stars
comments

Dont Dream Its Over Bass Tab

Band   : Sixpence None The Richer
Song   : Don't Dream It's Over (Bass Tablature)
Tuning : Standard
Tabbed By : me_troa_geira

Intro : (wait for the guitar intro as repeated 2 times den go to verse)

Verse 1: 
G |-----------------------------------------------------------------|
D |-----------------------------------------------------------------| Repeat
A |----------------------5-----55-------2-----22------------------|  2 x 
E |-------1-----11-------------------------------------5-----55---|

Chorus :
G |--------------------------------------|
D |--------------------------------------| Repeat
A |-------2-----3-3------------5-5-------|   2 x
E |----------------------1---------------|  then

G |----------------------------------------------------------|
D |----------------------------------------------------------|
A |-------2-----3-3------------5-5-------2-----2-2-----------|
E |----------------------1------------------------------3----|

Verse 2:
G |-----------------------------------------------------------------|
D |-----------------------------------------------------------------| Repeat
A |----------------------5-----55-------2-----22------------------|  2 x 
E |-------1-----11-------------------------------------5-----55---|
[ Tab from: http://www.guitartabs.cc/tabs/s/sixpence_none_the_richer/dont_dream_its_over_btab.html ]
Chorus :
G |--------------------------------------|
D |--------------------------------------| Repeat
A |-------2-----3-3------------5-5-------|   2 x
E |----------------------1---------------|  then

G |----------------------------------------------------------|
D |----------------------------------------------------------|
A |-------2-----3-3------------5-5-------2-----2-2-----------|
E |----------------------1------------------------------3----|

Adlib :
G |-----------------------------------------------------------------|
D |-----------------------------------------------------------------| Repeat
A |----------------------5-----55-------2-----22------------------|   2 x 
E |-------1-----11-------------------------------------5-----55---|

G |--------------------------------------|
D |--------------------------------------| Repeat
A |-------2-----3-3------------5-5-------|   2 x
E |----------------------1---------------|  then

G |--------------------------------------|
D |--------------------------------------|
A |-------2-----3-3----------------------|
E |----------------------1-(pause)-------|

(Repeat Verse 1 and Chorus)

Outro :
G |--------------------------------------|
D |--------------------------------------| 
A |-------2-----3-3------------5-5-------|   
E |----------------------1---------------|

(Repeat as often times till fades out)

well, that's it!!! Any corrections just feel free to change it...thanx!!!

TROA=) (electrogenesis)
Comments