Sixpence None The Richer - Brighten My Heart Chords & Tabs

 

Brighten My Heart Chords & Tabs

Sixpence None The Richer Chords & Tabs

Version: 2 Type: Chords 0 ratings
1 star 2 stars 3 stars 4 stars 5 stars
comments

Brighten My Heart Chords

   
Artist Name : Sixpence None the Richer
Song Name   : Brighten My Heart
Added By Mikhailo

Music by Matt Slocum  1998 Le Tigre Sur Un Ballon 
Horendously interpreted by Ryan Leng

Verse 1:
D          D7        Gmaj7       Gm
D          D7        Gmaj7       Gm
D          D7        Gmaj7       Gm
D          D7        Gmaj7       Gm

Chorus:
G          D         G
           D         G
           D         F
F2         C         D
G          D         G           D

Verse 2 Same as first, only with echos after each line.

Chorus again with echos

Soloish thing:

e----5--2--0--0-2-0-0-0--0-2--0-----3-3-2-0-2-|
B----3--3---3-1---1-1-1-3-----3-----3-3-----3-|
G-2--2--2-----2---2-----------0-----3-3-----2-|
D-0--0--0-----0---0-----------0-----2-2-----0-|
A---------------------------------------------|
E-----------------------------3---3-----------|
[ Tab from: http://www.guitartabs.cc/tabs/s/sixpence_none_the_richer/brighten_my_heart_crd_ver_2.html ]
e-5--2---0-2-3-2-0--0-0---0-2--0-----3-3-2-0-2-|
B-3--3--3--1-1-1-1--1-1--3-----3-----3-3-------|
G-2--2-----2-2-2-2--2-2--------0-----3-3-------|
D-0--0-----0-0-0-0--0-0--------0-----2-2-------|
A----------------------------------------------|
E------------------------------3---3-----------|

e-0--0-0-0-0---0--h2-0---2-5-5--5-5--2-2---10/3-|
B-0--0-0-2-3-2-0-----3-r-----3--3-3--2-2----8/3-|
G-1--1-1-2-4-2-1-----0-i-----0--2-2--4-4------0-|
D-2--2-2-2-0-2-2-----0-n-----0--2-2--4-4------0-|
A-2--2-2-0---0-2-------g--------0----2-2------2-|
E-0--0-0-------0-----3-------3----------------3-|

and then continue on with the chorus as written. 

Chords used

e-2--2----2----3--3--1--3--0-|
B-3--1----0----3--3--1--1--1-|
G-2--2----0----3--0--2--2--0-|
D-0--0----0----5--0--3--3--2-|
A---------2----5--2--------3-|
E--------------3--3----------|
  D  D7 Gmaj7  Gm G  F  F2 C

That is all you need to play and sing that song with one voice 
and one guitar. The solo isn't exactly what is played...it's sorta 
improvised, because it's played on a dobro or something, and there 
are a lot of other stringed instruments playing at that point.
So the solo is basically my best interpretation of how you can play 
that without the violins, cellos and stuff. Listen to the song.
Any corrections, suggestions etc, send em my way at Hierarchyofsnakes@Yahoo.com.
Also, if any of you knows how to play 
"Ready for the Storm" in open Cm (CGCGCEb) tuning by Dougie Maclean
and sung by the late Rich Mullins, could you help me out:0) Thanks.

That sure does sound perty! Praise God!
Comments