Sixpence None The Richer - Bleeding Chords & Tabs

 

Bleeding Chords & Tabs

Sixpence None The Richer Chords & Tabs

Version: 1 Type: Bass Tab 0 ratings
1 star 2 stars 3 stars 4 stars 5 stars
comments

Bleeding Bass Tab

   
-----------------------------------------------------------------
| Bleeding                                                      |
| by: Sixpence None the Richer                                  |
| CD: This Beautiful Mess                                       |
| written by: Matt Slocum                                       |
| transcribed by: mred@mailhost.net (Josh Prins)                |
| copyright: (C) 1995 Le Tigre Sur Un Ballon Publishing (ASCAP) |
-----------------------------------------------------------------

BASS TAB

The numbers above the tabs are the beats (in 4/4 time)
There may me subtle differences between this and the actual song, 
     but I believe it is right for the most part.


4 measure drum intro (no bass)

Intro A: 

1   2   3   4   1   2   3   4   1   2   3   4   1   2   3   4
----------------------------------------------------------------
----------------------------0-2-------------2---2-2-2222-22-0-2-
0-0-0-00-00-0-000-000-00-00-------------------------------------
--------------------------------0-000-00-00---0-----------------

Intro B/Verse A:

1   2   3   4   1   2   3   4   1   2   3   4   1   2   3   4
----------------------------------------------------------------
----------------------------0-2-----------------------------0-2-
0-0---00-00-----0-0---00-00-------------------------------------
--------------------------------0-0---00-00-----0-0---00-00-----

repeat INTRO B/VERSE A 8x

Verse B:

1   2   3   4   1   2   3   4   1   2   3   4   1   2   3   4
----------------------------------------------------------------
----------------------------0-2---------------------------------
0-0---00-00-----0-0---00-00-------------------------------------
--------------------------------0-0---00-00-----0-0---00-00-0---

Chorus A:
[ Tab from: http://www.guitartabs.cc/tabs/s/sixpence_none_the_richer/bleeding_btab.html ]
1   2   3   4   1   2   3   4   1   2   3   4   1   2   3   4
----------------------------------------------------------------
----------------------------------------------------------------
----------------0-0---00-00-0-0-3-3---33-33-3-3-2-2---22-22-20--
3-3---33-33-3-03----------------------------------------------0-

Chorus B:

1   2   3   4   1   2   3   4   1   2   3   4   1   2   3   4
----------------------------------------------------------------
----------------------------------------------------------------
----------------0-0---00-00-0-0-3-3---33-33-3-------------------
3-3---33-33-3-03------------------------------0--1-110---1-110--

INTRO B/VERSE A (9x)

VERSE B

CHORUS A

CHORUS B

Bridge:

1   2   3   4   1   2   3   4   1   2   3   4   1   2   3   4
----------------------------------------------------------------
------------0-2-------------0-2-------------0-2-----------------
----------------------------------------------------------------
0-0-0-00-00-----0-0-0-00-00-----0-0-0-00-00-----0--00-0000000000

(accent beats 3 and 4 of the last measure of the preceeding line)

1   2   3   4   1   2   3   4   1   2   3   4   1   2   3   4
----------------------------------------------------------------
----------------------------------------------------------------
--------------------------------3-3---33-33-3---3-3--333-33-30--
0-0-0-00-00-0-0-0-0-0-00-00-0-0-------------------------------0-

1   2   3   4   1   2   3   4   1   2   3   4   1   2   3   4
----------------------------------------------------------------
----------------------------------------------------------------
--------------------------------3-3---33-33-3---3-3---33-33-3---
0-0---00-00-0---0-0---00-00-0---------------------------------0-

CHORUS A (3x)

CHORUS B

End:

1   2   3   4   1
-----------------
-----------------
-----------------
-1-110---1-110--0

guitar thing at end (no bass)


Josh Prins
mred@mailhost.net


Comments