Sixpence - There She Goes Chords & Tabs

 

There She Goes Chords & Tabs

Sixpence Chords & Tabs

Version: 1 Type: Tab 0 ratings
1 star 2 stars 3 stars 4 stars 5 stars
comments

There She Goes Tab

   
#----------------------------------PLEASE NOTE---------------------------------#
#This file is the author's own work and represents their interpretation of the #
#song. You may only use this file for private study, scholarship, or research. #
#------------------------------------------------------------------------------#

Sixpence - There She Goes [Capo 1]
Send corrections to plenTpak@plenTpak.dhs.org

Intro:
  Guitar 1: A E D2,  A     E      D2
  Guitar 2:          AAmaj7EEsus  D2

E|--------------------------------------------------------------------- 
B|--0---------------0---------------0--------------0------------000000- 
G|2---1-2-------2-2---1-2---------2---1-2--------2--2---2--2--2--------
D|-2-2-2-2424242-2-2-2-2-242424242-2-2-2-24242424----424--4--4--------- 
A|--------------------------------------------------------------------- 
E|---------------------------------------------------------------------

[ Tab from: http://www.guitartabs.cc/tabs/s/sixpence/there_she_goes_tab.html ]
-(A)-(E)-(D2)----(A)-(E)-(D2)-----A---E---D2----Bm--A---D2------Bm--A---D2------EEEEEE-
E|------------------------------------------------------------------------------------- 
B|--0---------------0---------------0--------------0------0--------0------------000000-
G|2---1-2-------2-2---1-2---------2---1-2--------2---2--2---2--2-2--2---2--2--2--------
D|-2-2-2-2424242-2-2-2-2-242424242-2-2-2-24242424---2-44---2-44-4----424--4--4--------- 
A|------------------------------------------------------------------------------------- 
E|-------------------------------------------------------------------------------------

-Bm--A---D2------Bm--A----D2-----   
E|--------------------------------
B|-000000--00-!------------000000-  /!\ 
G|-------2---242----2-2-2-2-------  \4/ = slide 3->4 
D|4-------4-----42-4-4-4-4--------   
A|--------------------------------   
E|--------------------------------   
    Bm     Esus     D2
And I just can't contain
     Bm      Esus   D2EEEEE 
This feeling that remains
 

Comments