Six Feet Under - When Skin Turns Blue Chords & Tabs

 

When Skin Turns Blue Chords & Tabs

Six Feet Under Chords & Tabs

Version: 1 Type: Bass Tab 0 ratings
1 star 2 stars 3 stars 4 stars 5 stars
comments

When Skin Turns Blue Bass Tab

Bass tab
Six Feet Under
Bringer of Blood
When Skin Turns Blue

tabbed by: tholidomide mike


Riff one

G----------------------------|
D----------------------------|
A----------------------------|
E----------2-0------2----2-0-|
B-1-4-3-2-------1-1---1------| play four times

Riff two

G-------------------------|
D-------------------------|
A-------------------------|
E---2--2----------------0-|
B-1---1---1-4-1-4-1-4-2---| play three times

repeat riff one once

repeat riff two three times

repeat riff one four times

Riff three

G----------------------------|
D----------------------------|
A----------------------------|
E----------------------22222-|
B-11111-11111-11111111-------| play four times
[ Tab from: http://www.guitartabs.cc/tabs/s/six_feet_under/when_skin_turns_blue_btab.html ]
repeat riff one four times

repeat riff two three times

repeat riff one once

repeat riff three eight times

:G-------------|
 D-------------|
 A-------------|
 E---2---2-----|
 B-1---1---1---|

G--------------|
D--------------|
A--------------|
E--------------|
B-1-2-1-2-4----|

G--------------|
D--------------|
A--------------|
E--------------|
B-1-0-1-2-0----|

G--------------|
D--------------|
A--------------|
E--------------|
B--1-5-4-5-4-2-|:  Everything inside of :: repeat that set twice.

repeat riff one four times

repeat riff two three times

repeat riff one four times

the last riff of the song played is riff three. you let the guitar play it
twice then you slide in n play it twice

5/1 then repeat riff three twice
Comments