Six Feet Under - War Machine Chords & Tabs

 

War Machine Chords & Tabs

Six Feet Under Chords & Tabs

Version: 4 Type: Tab 0 ratings
1 star 2 stars 3 stars 4 stars 5 stars
comments

War Machine Tab

   
Tabbed by:THE SANDMAN
Email:ryan5@iamwasted.com

TUNING (low to high): D G C F A D


CHORUS:
D|------------------------------------------------
A|------------------------------------------------
F|------------------------------------------------
C|------------------------------------------------
G|------------------------------------------------
D|--0-7-0-5-0-7-0-5-0-3-5---0-7-0-3-0-5-0-5-0-3-5-

CHORUS-A
C|--------------------------
G|--------------------------
D|--0-7-0-5-0-7-0-5-0-3-5-0*

VERSE:
D|--------------------------------------------
A|--------------------------------------------
F|--------------------------------------------
C|-2-5--7-7-5-7---7-5-9-5--2-2-5-2---2--2-2-5-
G|-2-5--7-7-5-7---7-5-9-5--2-2-5-2---2--2-2-5-
D|-0-3--5-5-3-5---5-3-7-3--0-0-3-0---0--0-0-3-
[ Tab from: http://www.guitartabs.cc/tabs/s/six_feet_under/war_machine_tab_ver_4.html ]
D|--------------------------------------------
A|--------------------------------------------
F|--------------------------------------------
C|-7-7-5-7---7-5-7-5--9-9-9-9-9-9-9-9-9-9-9-9-
G|-7-7-5-7---7-5-7-5--9-9-9-9-9-9-9-9-9-9-9-9-
D|-5-5-3-5---5-3-5-3--7-7-7-7-7-7-7-7-7-7-7-7-

D|--------------------------------------------
A|--------------------------------------------
F|--------------------------------------------
C|-7-9--7-7-5-7---7-5-9-5--2-2-5-2---2--2-2-5-
G|-7-9--7-7-5-7---7-5-9-5--2-2-5-2---2--2-2-5-
D|-5-7--5-5-3-5---5-3-7-3--0-0-3-0---0--0-0-3-

D|-----------------------------------
A|-----------------------------------
F|-----------------------------------
C|-7-7-5-7---7-5-7-5--9--9-7--7-5--4-
G|-7-7-5-7---7-5-7-5--9--9-7--7-5--4-
D|-5-5-3-5---5-3-5-3--7--7-5--5-3--2-

RIFF UNDERNEATH SOLO (slower):
D|-----------------------------------
A|-----------------------------------
F|--------------------5---7---9---11-
C|-2---5-------2---6--5-5-7-7-9-9-11-
G|-2---5-------2---6--3-5-5-7-7-9-9*-
D|-0---3---3-4-0---4----3---5---7----

END:
C|-2-
G|-2-
D|-0*
Comments