Six Feet Under - War Machine Chords & Tabs

 

War Machine Chords & Tabs

Six Feet Under Chords & Tabs

Version: 3 Type: Tab 0 ratings
1 star 2 stars 3 stars 4 stars 5 stars
comments

War Machine Tab

e--------------------------------------------
b--------------------------------------------
d--------------------------------------------     PLay tHIS
g--------------------------------------------        2
a--------------------------------------------
d-0-7-0-5-0-7-0-7-0-3-5---0-7-0-3-0-5-0-5-0-3-5-


ON THE 3RD TIME 
e--------------------------------------------
b--------------------------------------------
d--------------------------------------------
g--------------------------------------------
a------------------------------------------------0--
d-0-7-0-5-0-7-0-7-0-3-5---0-7-0-3-0-5-0-5-0-3-5--0--

[ Tab from: http://www.guitartabs.cc/tabs/s/six_feet_under/war_machine_tab_ver_3.html ]
verse
e--------------------------------------------
b--------------------------------------------
d--------------------------------------------
g-o-3--5-5-0-5---0-5-0-5-3-0-0-3-0---0-3-0-3-3-5-5-0-5 
a-o-3--5-5-0-5---0-5-0-5-3-0-0-3-0---0-3-0-3-3-5-5-0-5
d-o-3--5-5-0-5---0-5-0-5-3-0-0-3-0---0-3-0-3-3-5-5-0-5

0-5-0-5-5--7/5---------------------------------------
0-5-0-5-5--7/5----------------------------------------
0-5-0-5-5--7/5----------------------------------------


it goes through these over and over, i havnt ever tried to find the solo it comes with a slide but ill tab it when i find it.                             

Pantera Lord
Comments