Six Feet Under - Torture Killer Chords & Tabs

 

Torture Killer Chords & Tabs

Six Feet Under Chords & Tabs

Version: 2 Type: Bass Tab 0 ratings
1 star 2 stars 3 stars 4 stars 5 stars
comments

Torture Killer Bass Tab

name=the master of bass
band=six feet under
song=torture killer
inst_type=Bass
body=six feet under
torture killer
9/17/00

i think its drop d tuning but im not 100 % posative
intro    i think this is right but im not sure 

g|-------------------------------------
d|-------------------------------------
a|-------------------------------------
e|-0--0-0--0--0-0--0--0-0--0--0-0--0-0-



[ Tab from: http://www.guitartabs.cc/tabs/s/six_feet_under/torture_killer_btab_ver_2.html ]
verse repeats  through out whole song
g|-----------------------------------------------------
d|-----------------------------------------------------
a|-------------------3---------------------------------
e|---5-0-0---3-0-0-----0-0---3-0-0---2-0---1-0---------

play this when he says "murder....."

g|--------------
d|--------------
a|--------------
e|--5-5-4-------


tabbed by me
qusetions,comments,compliments on how well i tabbed this  e-mail me at   FiElDywannabe@hotmail.com
Comments